PrimaNota.ru - самый крупный в мире бесплатный архив песенных текстов, аккордов, табулатур и нот


Tea Party - Winter Solstice V2 - таба, видео

Регистрация Запомнить меня
Войти через:  Facebook Google Twitter Vk Yandex Mail.ru

Tea Party - Winter Solstice V2 - таба, видео

Печатать
Просмотров: 93
Уроки эстрадного вокала в Санкт-Петербурге
#--------------------------------------------------------------------------
#-- File created with Instab - http://www.pconline.com/~smcarey/instab.html
#--------------------------------------------------------------------------

Author/Artist: The Tea Party
Title: Winter Solstice
Album: Splendor Solice
Transcribed by: Kymm Puckeridge
Email: kymm_p@hotmail.com

This is fairly accurate i think
tune guitar 1 to open Csus2 that is

E - down to C
A - down to G
D - down to C
G - G
B - up to C
E - down to D

It really is a damn good track so keep going till you
get it down

------------------|--------------------------------------------------------
-12^-------7^-----|----0-----0--4p0-----------------------0--2h4-2p0-------
-12^-------7^-----|*---0--------------0---------------0--------------------
-12^-------7^-----|*---0------------------0-------2------------------------
-12^-------7^-----|----5----------------------3----------------------------
-12^-------7^-----|----0---------------------------------------------------


---------------------------------------------------------------------------
----------0h2--0--4p2p0------12^--0----------0--4p0------0--------------0--
----------0--------------0---12^--0--0----0--0-------0--------------0------
-----0-------------------0-----------0----0----------0----------2----------
-----2----------------------------------3/5-----------------3--------------
-5----------------------------------------0--------------------------------


---------------------------------------------------------------------------
-2h4--2p0----------0h2---0---4p2p0-------7^---12^----------------0h2--0----
-------------------0-----0----------0----7^---12^-------------0----0----0--
----------------0-------------------0----------------------0--0---------0--
----------------2------------------------------------------2----------3/5--
-------------5------------------------------------------5------------------


---------------------------------------------------------------------------
-----0-----0-----0----------0h2----0-------------0--2p0-------0-------0h2--
-0------4-----0-------------0------0---------4------------4-----------0----
-0-----------------------0--0-------------4-----------------------0---0----
-------------------------2-------------2--------------------------2--------
----------------------5----------------------------------------5-----------


------------------------------|3/5----5---5---5\3---3--------5/7---7----7--
-0---4p2p0-------12^------0---|0------0---0---0-----0---0----0-----0----0--
-0-----------0---------0--0--*|0------0---0---0-----0---0----0-----0----0--
-----------------------0-----*|0------0-------0--------------0-----0-------
------------------------------|--------------------------------------------
------------------------------|--------------------------------------------


-7\5--3-------5/8---8---8---8\7---7\3---2---2---3---2/3--2---3---3/5---5---
-0----0---0---0-----0---0---0-------0---0---0---0---0----0---0---0-----0---
-0----0---0---0-----0---0---0-------0---0---0---0---0----0---0---0-----0---
-0------------0-------------0---------------0---0---0----0-------0-----0---
---------------------------------------------------------------------------
---------------------------------------------------------------------------


-5\3---3---3/5---5---5---5\3---3------5/7---7---7---7\5---5-------5/8---8--
-0-----0---0-----0---0---0-----0--0---0-----0---0---0-----0---0---0-----0--
-0-----0---0-----0---0---0-----0--0---0-----0---0---0-----0---0---0-----0--
-0---------0-----0-------0------------0-----0-------0-------------0-----0--
---------------------------------------------------------------------------
---------------------------------------------------------------------------


-8---8\7----7\3---2---2---3/5---8\5---5\2---2/5---5---5---5\2---2-------5/7
-0---0--------0---0---0---0-----0-----0-----0-----0---0---0-----0---0---0--
-0---0--------0---0---0---0-----0-----0-----0-----0---0---0-----0---0---0--
-----0----------------0---------------------0-----0-------0-------------0--
---------------------------------------------------------------------------
---------------------------------------------------------------------------


-7---7---7\5---3-------5/8---8---8---8\7---5\3---2---2---3\2--2/3---3---3|-
-0---0---0-----0---0---0-----0---0---0-------0---0---0---0------0---0---0|-
-0---0---0-----0---0---0-----0---0---0-------0---0---0---0------0---0---0|-
-0-------0-------------0-----0-------0---------------0----------0---0----|-
-------------------------------------------------------------------------|-
-------------------------------------------------------------------------|-
Ready for the "fast" bit???

------------------------------------|--------------------------------------
---------0h2--0---4p2p0--------12^--|--------------------2h4p2p0-----------
---------0----0-----------0----12^--|-0h2p0------0---4-------------2-------
-----0---0---------------------12^--|---------4-----------------------4--5-
-----2-------------------------12^--|--------------------------------------
-5-----------------------------12^--|--------------------------------------
                                 here we go

--------------------------------|------------------------------------------
--------------------------------|-------------------0--2p0----0-4p2p0-0----
--------------------------------|-2p0---0--4p2p0-----------4---------------
-2-h4p2p0-----------------------|-----4----------4-------------------------
-----------2--------------------|------------------------------------------
--------------4--5------------0-|------------------------------------------


---------------------------------------------------------------------------
-------------------0--2p0---0--4p2p0-0-----------------------0-------------
-2p0---0--4p2p0-----------4-------------2p0-----0--4p2p0--------2p0-----0-
-----4----------4----------------------------4------------4----------4-----
---------------------------------------------------------------------------
---------------------------------------------------------------------------


-----------------------------------------------|-3--2---------0--3--2------
-----------------------------0-----------------|---------2p0--0------------
-----------2p0---0--4p2p0-------2p0---0-------0|---------------------------
-4p2p0--0------4----------2---------4---4p2p0-0|---------------------------
-----------------------------------------------|---------------------------
-----------------------------------------------|---------------------------


--------0---3-2h5-------------2---3---3/5---3----------------------3---2---
-4p2p0--0----------4p2p0--0---0---0-----0---0------------------------------
--------------------------0---0---0-----0---0------------------------------
--------------------------0---0---0-----0---0------------------------------
--------------------------0------------------------------------------------
---------------------------------------------------------------------------


--------0---3--2------------0---3--2----------------2---3---5/7---5---3--2-
-4p2p0--0------------4p2p0--0----------4p2p0---0----0---0-----0---0--------
-----------------------------------------------0----0---0-----0---0--------
-----------------------------------------------0----0---0-----0---0--------
-----------------------------------------------0---------------------------
---------------------------------------------------------------------------


--------0---3--2----------0---3---2---------------2---3---5/8---7---3---2--
-4p2p0--0----------4p2p0--0-----------4p2p0---0---0---0-----0---0----------
--------------------------------------0-------0---0---0-----0---0----------
----------------------------------------------0---0---0-----0---0----------
----------------------------------------------0----------------------------
---------------------------------------------------------------------------


---------0---3---2------------0---3---2---------------2---3---2h3---2---3--
-4p2p0---0-------------4p2p0--0-----------4p2p0---0---0---0-----0---0------
------------------------------------------0-------0---0---0-----0---0------
--------------------------------------------------0---0---0-----0---0------
--------------------------------------------------0------------------------
---------------------------------------------------------------------------


-2-----------0---2---3---3/5---3---3---2-----------0---2---3---5/7---5---3-
-----4p2p0---0---0---0-----0---0-----------4p2p0---0---0---0-----0---0-----
-----------------0---0-----0---0-----------0-------0---0---0-----0---0-----
-----------------0---0-----0---0-----------------------0---0-----0---0-----
---------------------------------------------------------------------------
---------------------------------------------------------------------------


-0-----------0---2---3---7/8---7---3---2---------0---8---10---8---10---8---
-----4p2p0---0---0---0-----0---0---0---0---4p2p--0---0---0----0---0----0--0
-----0-------0---0---0-----0---0---0---0---0-----0---0---0----0---0----0--0
-----------------0---0-----0---0-----------------0---0---0----0---0----0--0
---------------------------------------------------------------------------
---------------------------------------------------------------------------


-10---10---10---10---10---8---10---10---10---10---10---7---8---8---8---8--8
-0----0----0----0----0----0---0----0----0----0----0----0---0---0---0---0--0
-0----0----0----0----0----0---0----0----0----0----0----0---0---0---0---0--0
-0----0---------0---------0---0----0---------0---------0---0---0-------0---
---------------------------------------------------------------------------
---------------------------------------------------------------------------


-7---8---8---8---8---8---10/12---7---7---7---7---7---10/12---7---7---7---7-
-0---0---0---0---0---0------0----0---0---0---0---0------0----0---0---0---0-
-0---0---0---0---0---0------0----0---0---0---0---0------0----0---0---0---0-
-0---0---0-------0----------0----0---0-------0----------0----0---0-------0-
---------------------------------------------------------------------------
---------------------------------------------------------------------------


-7---5---5---5---5---5/3---3---3---3---3---3---3---3---3|------------------
-0---0---0---0---0---0-----0---0---0---0---0---0---0---0|---------0h2---0--
-0---0---0---0---0---0-----0---0---0---0---0---0---0---0|---------0-----0--
-----0---0---0-------0-----0-------0-------0-------0----|-----0---0--------
--------------------------------------------------------|-----2------------
--------------------------------------------------------|-5----------------


---------------------------------------------------------------------------
--------------0---2p0-------0-----------0h2--0--------------0---2p4---2p0--
----------4-------------4---0-----------0----0----------4------------------
-----4------------------------------0---0-----------4----------------------
-2----------------------------------2-----------2--------------------------
--------------------------------2------------------------------------------


---------------------------------------------------------------------------
--------------0---------------0---------------0----------------------------
--------------0---------------0---------------0----------------------------
----------0---------------0---------------0---0----------------------------
------2---------------4---------------2-------0----------------------------
-5----------------7---------------5-----------0----------------------------
there i hope you feel the way i did first time i played it through
any questions or comments e-mail me @ 'kymm_p@hotmail.com'
any complaints should be directed too my complaints department @
www.dealwithit.com
     
Добавлено: 16.11.2013
Другие материалы по этой песне:
  • Аккорды и текст

Страница создана 16.11.2013
http://primanota.ru/tea-party/winter-solstice-v2-chords.htm
Привет, Гость.
Предлагаем пройти революционный курс по гитаре.
Подарок от PrimaNota.Ru, забирай!