PrimaNota.ru - самый крупный в мире бесплатный архив песенных текстов, аккордов, табулатур и нот


Tea Party - The Master & The Margarita - текст песни, таба, видео

Регистрация Запомнить меня
Войти через:  Facebook Google Twitter Vk Yandex Mail.ru

Tea Party - The Master & The Margarita - текст песни, таба, видео

Печатать
Просмотров: 180
                        The Master & Margarita
                             The Tea Party
                         The Interzone Mantras
                           TAB by: Kevin Webb

Arranged for standard drop-D tuning

    Intro (12-string acoustic)  Let Ring    
E---|--------------------|-----------------||
B---|--3--3--3--1--1--1--|-----------------||
G---|--0--0--0--0--0--0--|--3--3--2--0--0--||
D---|--1--1--1--1--1--1--|--0--0--0--0--0--||
A---|--------------------|-----------------||
D---|--------------------|--5--5--5--5--5--||
       4 Times                                 


Lead Riff              
E---|---------------------------------------------|-----------------------------
B---|---------------------------------------------|-----4--5--4--5--7--5--4--5--
G---|---------------------------------------------|--5--------------------------
D---|-----4--5--4--5--7--5--4--5--8--8--10--8--7--|-----------------------------
A---|--5------------------------------------------|-----------------------------
D---|---------------------------------------------|-----------------------------

                                                                     
E------------------||
B------------------||
G------------------||
D------------------||
A------------------||
D---5--5--7-1--0---||
                                                                      

 Lead Chords                    Verse Riff                  
E--------------|--------------||-----------------------------------------|
B--------------|--------------||-----------------------------------------|
G--------------|--------------||-----------------------------------------|
D--x--x--8--7--|--x--x--5--4--||-----------------------------------------|
A--------8--7--|--------5--4--||--0--4--5--1--0--0--4--5--1--0--x--1-----|
D--------8--7--|--------5--4--||--0--4--5--1--0--0--4--5--1--0--x--1-----|
                                                                      

                   Guitar Lead Fill   Chorus Lead                     
E-----||----------||------------------|-----------------------
B-----||----------||------------------|-----------------------
G--8--||--10\8\7--||--10--8--7--------|--10--8--7--10--8------
D-----||----------||------------7--8--|-------------------7---
A-----||----------||------------------|-----------------------
D-----||----------||------------------|-----------------------
                                      With Intro Chords               

                  Solo 1                                              
E||-----------------------------------------------|------
B||------------10--8---------------8--10--11--13--|------
G||--10--8--7---------7--10--8--7-----------------|------
D||-----------------------------------------------|------
A||-----------------------------------------------|------
D||-----------------------------------------------|------
                                                                      

                                                                      
E--------------------|---------------------------|--------------------
B-------------9^\9^--|/11--10--8--10--11--10--9--|--12^--12--12-------
G---7--8--10---------|---------------------------|--------------------
D--------------------|---------------------------|--------------------
A--------------------|---------------------------|--------------------
D--------------------|---------------------------|--------------------
                                                                      

                                                                      
E-------------------------------------|-------------------|-----------
B---11--10--x--12^--12--12--11--10\8--|------------9^\9^--|/11--10----
G-------------------------------------|--7--8--10---------|-----------
D-------------------------------------|-------------------|-----------
A-------------------------------------|-------------------|-----------
D-------------------------------------|-------------------|-----------
                                                                      

                                                                      
E---------------------|-----------------------------------------------
B---8--10--11--10--9--|--12^--12--12--11--10--x--12^--12--12--11------
G---------------------|-----------------------------------------------
D---------------------|-----------------------------------------------
A---------------------|-----------------------------------------------
D---------------------|-----------------------------------------------
                                                                      

                                  Chords behind Solo 1                
E-----------------------------||------------------------|-------------
B---10\8--8--10--11--13--13^--||------------------------|-------------
G-----------------------------||------------------------|-------------
D-----------------------------||--7--5--7--5--7--8--10--|--7--5--7----
A-----------------------------||--7--5--7--5--7--8--10--|--7--5--7----
D-----------------------------||--7--5--7--5--7--8--10--|--7--5--7----
                                  Guitar 2 hard strikes               

                  Intro chords with Lead     Into Outro Lead        
E----------------|--------------------------|---------------|---------
B----------------|--------------------------|---------------|---------
G----------------|--------------------------|---------------|---------
D---5--7--8--10--|--x--x--x--x--x--x--x--x--|--5--7--8--10--|---------
A---5--7--8--10--|--------------------------|--5--7--8--10--|---------
D---5--7--8--10--|--------------------------|--5--7--8--10--|---------
                                                                      

    Outro Lead (With Solo chords)                  etc                
E-------------------|------------------|------------------||
B---11^--11--10--8--|--11^--11--10--8--|--11^--11--10--8--||
G-------------------|------------------|------------------||
D-------------------|------------------|------------------||
A-------------------|------------------|------------------||
D-------------------|------------------|------------------||
                                                                      

    Outro                                                             
E----------------------------------------------|----------------------
B----------------------------------------------|----------------------
G----------------------------------------------|----------------------
D------4--5--4--5--7--5--4--5--8--8--10--8--7--|-----4--5--4--5--7----
A---5------------------------------------------|--5-------------------
D----------------------------------------------|----------------------
    Lead Riff and chords                                              

                                Lead Chords                           
E---------------------------||--------------|--------------||
B---------------------------||--------------|--------------||
G---------------------------||--------------|--------------||
D---5--4--5-----------------||--x--x--8--7--|--x--x--5--4--||
A---------------------------||--------8--7--|--------5--4--||
D------------5--5--7--1--0--||--------8--7--|--------5--4--||
                                                                      

    Final bar                                                         
E------------------||
B------------------||
G------------------||
D------------------||
A---0--4--5--1--0--||
D---0--4--5--1--0--||
    Heavy palm muting                                                 



     
Добавлено: 28.06.2013
Вам также может быть интересно:
Другие материалы по этой песне:
  • Аккорды и текст

Страница создана 06.03.2012
http://primanota.ru/tea-party/the-master-and-margarita-chords.htm
Привет, Гость.
Предлагаем пройти революционный курс по гитаре.
Подарок от PrimaNota.Ru, забирай!