PrimaNota.ru - самый крупный в мире бесплатный архив песенных текстов, аккордов, табулатур и нот


Tea Party - Shadows On The Mountainside - аккорды и текст, таба, видео

Регистрация Запомнить меня
Войти через:  Facebook Google Twitter Vk Yandex Mail.ru

Tea Party - Shadows On The Mountainside - аккорды и текст, таба, видео

Печатать
Просмотров: 106
Shadows On The Mountainside
Tea Party
Shadows on the Mountainside - The Tea Party


Notes on notation:
	
	#p# - strike the first note and pull off to second
	(#) - play the harmonic at the specified fret

Questions or comments may be sent to: brodyped@roadrunner.nf.net

Intro (free time)

E ------------------------------------------
B ----------------------3-3-5p3-------------
G -------0----------0-2---------2p0---0-----
D -----4---4------4-----------------4---4---
A ---0----------0-------------------------0-
D -0----------0-----------------------------

E ------------------------------------------
B -------------------------(7)--------------
G -------0----------0---(7)-----(5)---------
D -----4-------------(7)--------------------
A ---0--------------------------------------
D -0------(7)(5)(4)-------------------------


Riff 1

E ----------0------------0---
B --3------------3-----------
G ------0-----0------2-----2-   X 4
D ----4------------4---------
A --0------------0-----------
D --------0-----------0------

 
E ------2-------2---3-------3---0-------0---2-------2----
B ----------3-----3-----3-----3-----1-----1-----3-----3--
G --------2-----------4-----------2-----------2----------
D ------0-----0-----0-----0-----0-----0-----0-----0------
A -------------------------------------------------------
D -------------------------------------------------------

We are  spirits     passing     through the doors     ...


Riff 1 X 2

time....
find....  (goto Riff 2)

sun.....
one.....


Riff 2

E ----------0---
B --3-----------
G ------2-----2-  X 4   		Riff 1 X 2
D ----3---------
A --0-----------
D --------0-----

    Shadows on the ...

    Shadows on the ...


Riff 2 X 4

Shadows on the mountainside...


Riff 3

E ----------5----
B --0------------
G ------0-----0--  X 4
D ----5----------
A ---------------
D --5-----5------


Riff 4

E ------------0----
B ----0------------
G --------2-----2--  X 4
D ------3----------
A -----------------
D ----3-----3------

Cover me


Riff 3           Riff4

woa-oah    Cover me.. ...


E ----------0------------0------------0--------------------
B --0------------0------------0------------0 let ring... --
G ------4-----4------4-----4------4-----4------------------
D ----3------------3------------3--------------------------
A ---------------------------------------------------------
D --3-----3------3-----3------3-----3------3-let ring... --

    Please                         ...

E ------------------------------------------------------
B --1-------1----3-------3----5-------5----6-------6----
G ------2-----2------4-----4------5-----5------7-----7--
D ----2------------3------------7------------7----------
A --0-----0------5-----5------7-----7------8-----8------
D ------------------------------------------------------

    now...

E -------------------------------------------------0----
B --5-------5----3-------3----1-------1----0------------
G ------5-----5------4-----4------2-----2------1-----1--
D ----7------------3------------2------------2----------
A --7-----7------5-----5------0-----0------2-----2------
D ------------------------------------------------------

E ------------------------------------------------------
B --1-------1----3-------3----5-------5----6-------6----
G ------2-----2------4-----4------5-----5------7-----7--
D ----2------------3------------7------------7----------
A --0-----0------5-----5------7-----7------8-----8------
D ------------------------------------------------------

E ------------------------------------0------------0----
B --5-------5----3-------3----1------------1------------
G ------5-----5------4-----4------2-----2------2------2-
D ----7------------3------------2------------2----------
A --7-----7------5-----5------3-----3------3-----3------
D ------------------------------------------------------

E ----------0------------0------------0------------0----
B --0------------0------------0------------0------------
G ------1-----1------2-----2------4-----4------7-----7--
D ----2------------3------------6------------9----------
A --2-----2------5-----5------7-----7------8-----8------
D ------------------------------------------------------

E --------------0-----
B --0-----------------
G --------10------10-- X 4
D -----12-------------
A --11-------11-------
D --------------------


Riff 5

E ----------0----
B --0------------
G ------2-----2--  X 4
D ----2----------
A --0------------
D --------2------
 
    And...		red ...
And she...		...
And then...		all ...
Her hands...		and I ...

Riff 6

E ----------0----
B --0------------
G ------2-----2--  X 4
D ----3----------
A --5------------
D --------0------

    flow ... to seas
    return ... to me
    am... is in 
    -turn... to her... and


Riff 5, repeating.  Slow to end.

then... and then... and then... I begin...
     
Добавлено: 05.08.2013
Другие материалы по этой песне:

Страница создана 22.06.2012
http://primanota.ru/tea-party/shadows-on-the-mountainside-chords.htm
Привет, Гость.
Предлагаем пройти революционный курс по гитаре.
Подарок от PrimaNota.Ru, забирай!