PrimaNota.ru - самый крупный в мире бесплатный архив песенных текстов, аккордов, табулатур и нот


Tea Party - Save Me - аккорды и текст, таба, видео

Регистрация Запомнить меня
Войти через:  Facebook Google Twitter Vk Yandex Mail.ru

Tea Party - Save Me - аккорды и текст, таба, видео

Печатать
Просмотров: 126
Save Me
Tea Party
		   From alt.guitar.tab Tue Apr 12 16:46:03 1994
Xref: news.tcd.ie alt.guitar.tab:21872 rec.music.makers.guitar.tablature:14977
Newsgroups: alt.guitar.tab,rec.music.makers.guitar.tablature
Path: news.tcd.ie!ieunet!EU.net!uknet!pipex!howland.reston.ans.net!cs.utexas.edu!utnut!utcsri!newsflash.concordia.ca!sifon!cidsv01.cid.aes.doe.ca!!mvisser
Message-ID:  Co2FoI.11I@cid.aes.doe.ca>
Sender: news@cid.aes.doe.ca (Network News)
Organization: Environment Canada
X-Newsreader: TIN [version 1.2 PL2]
Lines: 187

This is a really cool song, with a wicked bass line.  If you haven't
already bought _Splendor Solis_ then buy it!  Wow, what a CD.

"Save Me" by The Tea Party
(most of the guitar is played with a bow - cool eh?)

Key: Em
Time sig: fast 4/4

You can play this song in standard tuning, but I think it is played in
open D (low to high: DADF#AD) on the CD - I'll tab both ways as much
as I can.  It sounds nicer in open D (especially on the bridge part)
'cause you get the open strings adding harmonics.

 | Intro (standard tuning)
 |=================|=================|
e|-0---------------|-----------------|
B|-3---------------|-----------------|
G|-2---------------|-----------------|
D|-0---------------|-----------------|
A|-----------------|-----------------|
E|-----------------|-----------------|

  | Intro (open D tuning)
  |=================|=================|
d |-2---------------|-----------------|
A |-0---------------|-----------------|
F#|-0---------------|-----------------|
D |-0---------------|-----------------|
A |-0---------------|-----------------|
D |-0---------------|-----------------|

(This might be totally wrong, but I think the bass is using dropped-D tuning
 I don't own a bass - this sounds right (albeit too high) on my guitar)

 | Cool Bass Riff
 |===|=================|=================|=================|=================|
G|---|-----------------|-----------------|-----------------|-----------------|
D|---|-----------------|-----------------|-----------------|-----------------|
A|---|-----5-------5-5-|-----5---5--/10--|-----5-------5-5-|-----5-----------|
D|12\|-0-----0---0-----|-0-0---0---------|-0-----0---0-----|-0-0---0-5--/9---|


 | Verse (standard tuning)
 |=================================|
e|-2---3-------5-------7---------8-| hold the last chord for 2 bars,
B|-3---3-------5-------8---------8-| slide down to the previous, hold 2 bars
G|-2-----------4-------7---------7-| etc.
D|-0-----------0-------0---------0-|
A|---------------------------------|
E|---------------------------------|

  | Verse (open D tuning)
  |=================================|
d |-4---5-------7-------9--------10-|
A |-5---5-------7-------10-------10-|
F#|-3-----------5-------8---------8-|
D |-0-----------0-------0---------0-|
A |-0-----------0-------0---------0-|
D |-0-----------------------------0-|

 | Bridge (standard tuning)
 |=================================|=================================|
e|-3/5-5-5-5\3---3-3/7-7-7-7\5---5-|-5/9-9-9-9-\7-7\5-2---3-3/7---5--|
B|---------------------------------|---------------------------------|
G|---------------------------------|---------------------------------|
D|---------------------------------|---------------------------------|
A|---------------------------------|---------------------------------|
E|---------------------------------|---------------------------------|

 |=================================|==================================|
e|-3/5-5-5-5\3---3-3/7-7-7-7\5---5-|-5/9-9-9-9-\7-7\5-2---3---2h3p2---|
B|---------------------------------|----------------------------------|
G|---------------------------------|----------------------------------|
D|---------------------------------|----------------------------------|
A|---------------------------------|----------------------------------|
E|---------------------------------|----------------------------------|

  | Bridge (open D tuning)
  |=================================|==================================|
d |-5/7-7-7-7\5---5-5/9-9-9-9\7---7-|-7/10101010\9-9\7-4---5-5/9---7---|
A |-0-------------------------------|----------------------------------|
F#|---------------------------------|----------------------------------|
D |---------------------------------|----------------------------------|
A |---------------------------------|----------------------------------|
D |---------------------------------|----------------------------------|

  |=================================|==================================|
d |-5/7-7-7-7\5---5-5/9-9-9-9\7---7-|-7/10101010\9-9\7-4---5---4h5p4---|
A |-0-------------------------------|----------------------------------|
F#|---------------------------------|----------------------------------|
D |---------------------------------|----------------------------------|
A |---------------------------------|----------------------------------|
D |---------------------------------|----------------------------------|

 | Chorus (standard tuning)
 |===================================|===================================|
e|-2-----3--------3--2---------------|-3-----3-----3-----3-----3-----3---|
B|-3-----3--------3--3---------------|-3-----3-----3-----3-----3-----3---|
G|-2-----2--------2--2---------------|-0-----0-----0-----0-----0-----0---|
D|-0-----0--------0--0---------------|-0-----0-----0-----0-----0-----0---|
A|-----------------------------------|-3-----2-----0-----2-----0-----2---|
E|-----------------------------------|-------------------3-----2-----0---|

(not sure about the chorus in open D)

 | Solo (standard tuning) play twice
 |=======================================================|
e|-12-14-10-8-10-7-8-5-7-3-5-3-5-2-3-5-3-7-5-8-7-10-8-12-|
B|-------------------------------------------------------|
G|-------------------------------------------------------|
D|-------------------------------------------------------|
A|-------------------------------------------------------|
E|-------------------------------------------------------|

 | Solo (open D tuning) play twice
 |===========================================================|
e|-14-16-12-10-12-9-10-7-9-5-7-5-7-4-5-7-5-9-7-10-9-12-10-14-|
B|-----------------------------------------------------------|
G|-----------------------------------------------------------|
D|-----------------------------------------------------------|
A|-----------------------------------------------------------|
E|-----------------------------------------------------------|

Play intro, enter drums, adlib guitar for 8 bars, then enter bass
Adlib guitar for 8 more bars then start:

(Verse)
I must grieve you tonight, my love
Remain so faithfully
I must go off to war, my dear
The kings await me
I will go so far away
I will always love you, but you knew (yeah)

(Bridge)

(Verse)
I regret to tell you
Your man has died tonight
He was a brave man
He fought a brave fight
He was killed by the other side
He was killed by the other man's knives

(Chorus)
She said save me
Save me

(Verse)
Why must you love this man
He is your brother
This is easy to understand
My son, there is no other
I cannot pretend
To love this man like my father
I can not pretend
Mother there is no other

(Chorus)
She said "Save me"
Save me

(Bridge twice) (Bridge is slightly different last time)
(Solo)

(Guitar is same pitch as vocals)
Save me
Save me

(Bridge 2) (don't look for it, I haven't tabbed it :)

When there is no truth
Let's end this lie tonight
This is easy to understand
Without your best fight
But I see a new sun
Rising in the east
But I see a new sun
Rising in the east

(Chorus)
She said "Save me"
Save me
Save me
Save YOU     
Добавлено: 12.07.2013
Другие материалы по этой песне:

Страница создана 09.03.2012
http://primanota.ru/tea-party/save-me-chords.htm
Привет, Гость.
Предлагаем пройти революционный курс по гитаре.
Подарок от PrimaNota.Ru, забирай!