PrimaNota.ru - самый крупный в мире бесплатный архив песенных текстов, аккордов, табулатур и нот


Tea Leaf Green - Space Hero Ii - аккорды и текст, видео

Регистрация Запомнить меня
Войти через:  Facebook Google Twitter Vk Yandex Mail.ru

Tea Leaf Green - Space Hero Ii - аккорды и текст, видео

Печатать
Просмотров: 89
Space Hero Ii
Tea Leaf Green
SONG :  SPACE HERO II
ARTIST: TEA LEAF GREEN
TAB BY: DON CZARSKI
EMAIL:  GUITARZAN7@HOTMAIL.COM

            SPACE HERO II
           TEA LEAF GREEN 

INTRO:
                   sl.   sl.
Low E string  E --12\1--1/12--

   *MAIN RIFF* - 5x's
    E           A
E -----------------------
B -----------------------
G -----------------------
D -----------------------
A --2-2--------4-0-------
E --0-0--0h4h5-----------
 
         then

play *MAIN RIFF* over and 
over all the VERSES
    E           A
E -----------------------
B -----------------------
G -----------------------
D -----------------------
A --2-2--------4-0-------
E --0-0--0h4h5-----------


VERSE:
On, on
Go on, turn the light on 
The dawn is crackin'
And I don't know where I am 
Gotta get, gotta get, gotta get
Gotta get, gotta get, gotta get
Gotta get in control 

CHORUS:
 D
I'm gonna be
Bb         A    Dbm D
   A space hero 

    E           A
E -----------------------
B -----------------------
G -----------------------
D -----------------------
A --2-2--------4-0-------
E --0-0--0h4h5-----------

VERSE:
God damn
This rusty can 
Last thing I knew
Sally Mae had the plan 
Fifty thousand years ago
I was an ape man 

CHORUS:
 D
Now I'm gonna be
Bb          A   D
   A space hero-oh 

    E           A
E -----------------------
B -----------------------
G -----------------------
D -----------------------
A --2-2--------4-0-------
E --0-0--0h4h5-----------

VERSE:
You're a pink cheetah
I'm a mosquito
And I'm doing backflips
Into your mouth lips 
You might remember 
A little night in Denver
You wore a sweater 
I shot a laser 

    E           A
E -----------------------
B -----------------------
G -----------------------
D -----------------------
A --2-2--------4-0-------
E --0-0--0h4h5-----------

VERSE:
You are a river
I am a lizard
I licked that frosting
Off the tip of your finger
I shot the mayor 
Of your record player
I tried to tell you
Save it for later


CHORUS:
    D       Bb
But weeeee were
     A     Db  D   
Too waaaaasted

     E           A
E -----------------------
B -----------------------
G -----------------------
D -----------------------
A --2-2--------4-0-------
E --0-0--0h4h5-----------

VERSE:
I'm gonna be
A space hero 

I'm gonna be
A space hero 

I'm gonna be
              F#    Db   E
A space hero 

N.C.
I got blood on the tracks                                
                                                       
Добавлено: 26.05.2015
Другие материалы по этой песне:
  • Аккорды и текст

Страница создана 26.05.2015
http://primanota.ru/tea-leaf-green/space-hero-ii-chords.htm
Привет, Гость.
Предлагаем пройти революционный курс по гитаре.
Подарок от PrimaNota.Ru, забирай!