PrimaNota.ru - самый крупный в мире бесплатный архив песенных текстов, аккордов, табулатур и нот


Tchami - Promesses - таба, видео

Регистрация Запомнить меня
Войти через:  Facebook Google Twitter Vk Yandex Mail.ru

Tchami - Promesses - таба, видео

Печатать
Просмотров: 106
-------------------------------------------------------------------------------
                            Promesses - Tchami
-------------------------------------------------------------------------------
Tabbed by SJC97

STANDARD TUNING

My first tab, be nice please. Amazing future house song by Tchami, this is
the drop for anyone wanting to learn it. I made this by ear so it
might not be 100% correct. Enjoy.

DROP
e|---------------------------------------------------------------------------|
B|---------------------------------------------------------------------------|
G|---------------------------------------------------------------------------|
D|---------------------------------------------------------------------------|
A|----3---6---4---3----------------------------------------------------------|
E|--------------------3---3---4---4---3---4----------------------------------|


DROP with slide (maybe sounds better)
e|---------------------------------------------------------------------------|
B|---------------------------------------------------------------------------|
G|---------------------------------------------------------------------------|
D|---------------------------------------------------------------------------|
A|----3---/6---4---3---------------------------------------------------------|
E|---------------------3---3---4---4---3---4---------------------------------|


DROP with power chord
e|---------------------------------------------------------------------------|
B|---------------------------------------------------------------------------|
G|---------------------------------------------------------------------------|
D|----5---8---6---5----------------------------------------------------------|
A|----3---6---4---3---5---5---6---6---5---6----------------------------------|
E|--------------------3---3---4---4---3---4----------------------------------|

************************************

| /   slide up

************************************
Добавлено: 16.11.2014
Другие материалы по этой песне:
  • Аккорды и текст

Страница создана 16.11.2014
http://primanota.ru/tchami/promesses-chords.htm
Привет, Гость.
Предлагаем пройти революционный курс по гитаре.
Подарок от PrimaNota.Ru, забирай!