PrimaNota.ru - самый крупный в мире бесплатный архив песенных текстов, аккордов, табулатур и нот


Taylor Swift - White Blank Page - аккорды и текст, видео

Регистрация Запомнить меня
Войти через:  Facebook Google Twitter Vk Yandex Mail.ru

Taylor Swift - White Blank Page - аккорды и текст, видео

Печатать
Просмотров: 398
Новый альбом группы 'Черный Кузнец' по культовому сериалу 'Сверхъестественное'!
White Blank Page
Taylor Swift
Hi everyone! This is the chords for Taylor's verison of the Mumford and Sons song.

Here is the video: http://www.youtube.com/watch?v=B7RQ6tvikf8

It involves some picking but is very easy. After the first chorus switch to strumming.

No capo

Chords:

  Am   F    C   G7 ( I know it isn't G7 but I don't knwo what it is)

e|-0---1----0----0----|
B|-1---1----1----1----|
G|-2---2----0----0----|
D|-2---3----2----0----|
A|-0---3----3----2----|
E|-0---x----0----3----|


Intro: Am,F,C, G

Picking pattern for intro:
  Am         Am     F       C     G7
e|------------------------------------|
B|-----1-1-----1-1----1-1-----0-----1-|
G|---2-------2------2-------2-----0---|
D|-2-------2-------3------------------|
A|------------------------3-----2-----|
E|------------------------------------|



Picking for verse: Pick in the pattern shown on the tab and repeat number of times specified

    Am x8   F x2   C x2    F x2   C x1   G7 x1        
e|----------------------------------------------|
B|-----1-------1-------1-------1------1------1--|
G|---2-------2-------0-------2------0------0----|
D|-2-------3---------------3--------------------|
A|-----------------3--------------3------2------|
E|----------------------------------------------|

Am
Can you lie next to her
Am                F    C      F    C
And give her your heart, your heart
G7                    Am
As well as your body
Am
And can you lie next to her
Am               F   C      F   C
And confess your love, your love
G7                 Am
As well as your folly
Am
And can you kneel before the king
Am          F   C      F   C
And say I'm clean, I'm clean

Chorus:
G           Am          F      G
But tell me now, where was my fault
G          Am      F         G
In loving you with my whole heart
G          Am         F      G
Oh tell me now, where was my fault
G         Am       F        G     Am,F,C,F,C, G7
In loving you with my whole heart

Am                                F  C  F   C G7
Her white blank page and a swelling rage, rage
Am                                        F   C     F   C   G7
You did not think, oh you sent me to the brink, the brink
Am                                     F        C    F        C
You desired my attention but denied my affections, my affections

Chorus x2
Break:Am,F,C,F,C,Am

G       Am     F         G             Am       F        G
Lead me to the truth and I will follow you with my whole life
G       Am     F         G             Am       F        G
Lead me to the truth and I will follow you with my whole life 
Добавлено: 15.06.2013
Другие материалы по этой песне:
  • Аккорды и текст

Страница создана 15.06.2013
http://primanota.ru/taylor-swift/white-blank-page-chords.htm
Привет, Гость.
Предлагаем пройти революционный курс по гитаре.
Подарок от PrimaNota.Ru, забирай!