PrimaNota.ru - самый крупный в мире бесплатный архив песенных текстов, аккордов, табулатур и нот


Taylor Swift - If This Was A Movie - аккорды и текст, таба, видео

Регистрация Запомнить меня
Войти через:  Facebook Google Twitter Vk Yandex Mail.ru

Taylor Swift - If This Was A Movie - аккорды и текст, таба, видео

Печатать
Просмотров: 360
Авторы: Taylor Swift, Martin Johnson

If This Was A Movie
Taylor Swift
Album: Speak Now (Deluxe edition)
Artist: Taylor Swift
Year:2010
Tuning: Standard
plz rate/comment!

Use these chords 

   E  A  B C#m Abm
e|-0--0--0--0---0--|
B|-0--0--0--0---0--|
G|-9--9--8--8---4--|
D|-9--9--9--9---6--|
A|-7--0--x--x---6--|
E|-0--0--7--9---0--|

Intro
e|-----0-------0-----0-------0-------------------------------|
B|-----------------------------------------------------------|
G|---8---8---8-----8---8---8---8-----------------------------| x2
D|-9-------9-----9-------9-----------------------------------|
A|-----------------------------------------------------------|
E|-----------------------------------------------------------|
Verse 1
e|-----0-------0-------0-------0------------------------------|
B|------------------------------------------------------------|
G|---8---8---8---8---8---8---8---8----------------------------|
D|---------9-------9-------9----------------------------------|
A|-0----------------------------------------------------------|
E|------------------------------------------------------------|
   A
e|-----0-------0-------0-------0------------------------------|
B|------------------------------------------------------------|
G|---8---8---8---8---8---8---8---8----------------------------|
D|---------9-------9-------9----------------------------------|
A|-7----------------------------------------------------------|
E|------------------------------------------------------------|
   B
e|-----0-------0-------0-------0------------------------------|
B|------------------------------------------------------------|
G|---8---8---8---8---8---8---8---8----------------------------|
D|---------9-------9-------9----------------------------------|
A|-9----------------------------------------------------------|
E|------------------------------------------------------------|
  C#m
e|-----0-------0-------0-------0------------------------------|
B|------------------------------------------------------------|
G|---8---8---8---8---8---8---8---8----------------------------|
D|---------9-------9-------9----------------------------------|
A|-7----------------------------------------------------------|
E|------------------------------------------------------------|
   B
Verse 1: repeat the above twice... 

Last night I heard my own heart beating
Sounded like footsteps on my stairs
Six months gone and I'm still reaching
Even though I know you're not there
I was playing back a thousand memories baby
Thinkin bout everything we've been through
Maybe i've been going back too much lately
When time stood still and I had you

Chorus (strum once for each chord)

A
Come back come back come back to me like
B
You would you would if this was a movie
C#m                  B                A    B
Stand in the rain outside til I came out
E
Come back come back come back to me like
B 
You could you could if you just said you're sorry
C#m                 B                A
I know that we can work it out somehow
        B                                  A
But if this was a movie you'd be here by now

Repeat Intro

Verse 2 (strum)
A
I know people change and these things happen
     B
But I remember how it was back then
C#m
Locked up in your arms and our friends are laughing
     B
Cause nothing like this ever happened to them
         A
Now I'm pacing down the hall
         B
Chasing down your street
      C#m                       B
Flashback to the night when you said to me
A                             B
Nothings gonna change not for me and you
C#m                           B
Not before I knew how much I had to lose

Chorus (Strum)
E
Come back come back come back to me like
B
You would you would if this was a movie
C#m                  B                A    B
Stand in the rain outside til I came out
E
Come back come back come back to me like
B 
You could you could if you just said you're sorry
C#m                 B                A
I know that we can work it out somehow
        B                                  A
But if this was a movie you'd be here by now

A,C#m

Bridge: (strum)
A                                B
  If you're out there if you're somewhere if you're moving on
E                        C#m
I've be waiting for you ever since you've been gone
A                               B
I just want it back the way it was before
Abm                              C#m   B   A 
And i just wanna see you back at my front door

And i'd say

Chorus:
E
Come back come back come back to me like
B
You would before you said its not that easy
C#m              B                    A
Before the fight before i locked you out

But i'd take it all back now
E
Come back come back come back to me like
B
You would you would if this was a movie
C#m                  B                A    B
Stand in the rain outside til I came out
E
Come back come back come back to me like
B 
You could you could if you just said you're sorry
C#m                 B                A
I know that we can work it out somehow
        B                                  A
But if this was a movie you'd be here by now

Outro: (Repeat the riff for verse 1.)

You'd be here by now
It's not the kind of ending you wanna see now
Baby what about the ending
Oh i thought you'd be here by now oh ohh ohh ohh
That you'd be here by now
Добавлено: 28.04.2012
Другие материалы по этой песне:
  • Аккорды и текст

Страница создана 22.04.2012
http://primanota.ru/taylor-swift/if-this-was-a-movie-chords.htm
Привет, Гость.
Предлагаем пройти революционный курс по гитаре.
Подарок от PrimaNota.Ru, забирай!