PrimaNota.ru - самый крупный в мире бесплатный архив песенных текстов, аккордов, табулатур и нот


Tauk - Tumbler - таба, видео

Регистрация Запомнить меня
Войти через:  Facebook Google Twitter Vk Yandex Mail.ru

Tauk - Tumbler - таба, видео

Печатать
Просмотров: 80
(/) Slide Up  (\) Slide Down  (h) Hammer On  (p) Pull Off  (b) Bend (r) Release (v) Vibrato

Listen to the song to find out how it sounds. This tab is not perfect.

Short intro:

E|-----------------------------------|
B|-----------------------------0-----|
G|--------------------------2--1-----|
D|-----------------------------------|
A|--0--2-----------0--2--------------|
E|-----------------------------------|

E|-----------------------------------------------------------|
B|-----------------------------------------------------3--3--|
G|-----2--------------2--------4--2-----2-----2--------2--2--|
D|-----0-----4--2-----0-----------------0-----0--------0--0--|
A|--2-----2--0-----2-----2--2--------2-----2-----2--2--------|
E|-----------------------------------------------------------|

play that chord at the end and slide it up

1:

E|-----------------------------------------------------------14--|
B|--12-----------------------------------------------------------|
G|------11--12--11------11--9--11---------11--9--11--------------|
D|------------------12-------------12----------------11--12------|
A|---------------------------------------------------------------|
E|---------------------------------------------------------------|

2a:

E|------------------------------------------------------------------|
B|--12--------------------------------------------------------------|
G|------11--12--11------11--9--11---------11--9--11-----------------|
D|------------------12-------------11----------------11--12--11--9--|
A|------------------------------------------------------------------|
E|------------------------------------------------------------------|

play 1 again, then

E|---------------------------------------------------------------|
B|--12-----------------------------------------------------------|
G|------11--12--11------11--9--11---------11--9--11--------------|
D|------------------12-------------11----------------11--12--11--|
A|---------------------------------------------------------------|
E|---------------------------------------------------------------|

2b:

E|--------------------------------------------------------------------------|
B|--10----------10--12--10------10------12----------------------------------|
G|------11--11--------------11------10------10-----10--11-------------------|
D|----------------------------------------------9----------11--12--8--9-----|
A|----------------------------------------------------------------------(9)-|
E|--------------------------------------------------------------------------|

play this twice. the last note is played the first time, but not the second

play 1 and 2a again

E|---------------------------------------------------------------------------------------------0-----|
B|--------------------------------------------------------------------7--10--7--0-----------7--------|
G|---------------------------------------------------------------------------------0--7--9-----------|
D|---------------------------------------------------------------------------------------------------|
A|--------------5-----------5-----5-----------------5------------------------------------------------|
E|--7--7--7--7-----2--5--7-----7-----7--7--7--5--7-----2--2--5--7--7---------------------------------|

E|-------------0-----------------------------|
B|--7--10---------------------0--------0-----|
G|---------11-----7--6--2--4--------------2--|
D|-------------------------------2--4--------|
A|-------------------------------------------|
E|-------------------------------------------|

2nd ending for this part

E|--------------------0--------|
B|--------------0--------0-----|
G|--7--6--2--4-----4--------4--|
D|-----------------------------|
A|-----------------------------|
E|-----------------------------|

E|-----------------------------------|
B|-----------------------------------|
G|--------------------2--------------|
D|--4--2--------2--4-----2-----2--4--|
A|--------2--5--------------5--------|
E|-----------------------------------|

E|-----------------------------------|
B|-----------------------------------|
G|--------------2--------------------|
D|--------2--4-----2-----------------|
A|--2--5--------------5--4-----4--2--|
E|-----------------------------------|

Same thing, but higher

E|--------------------5--------------|
B|--7--5--------5--7-----5-----5--7--|
G|--------4--7--------------7--------|
D|-----------------------------------|
A|-----------------------------------|
E|-----------------------------------|

E|--------------5--------------------|
B|--------5--7-----5-----------------|
G|--4--7--------------7--6-----6--4--|
D|-----------------------------------|
A|-----------------------------------|
E|-----------------------------------|

Little bridge part

E|-----------------------------------------------|
B|-----------------------------------------------|
G|-----------7-----4-----2--------------------4--|
D|--7--4--7-----7-----4-----2--4--0--2--0-----4--|
A|-----------------------------------------0--2--|
E|-----------------------------------------------|

Keyboard solo in Bm

Transition to the higher part

E|-------------0--------------------------------------|
B|--7--10---------10--12--12--12--14--14--14--15--15--|
G|---------11-----------------------------------------|
D|----------------------------------------------------|
A|----------------------------------------------------|
E|----------------------------------------------------|

E|--14--17--14--------------12--14--12------12-----------------------------------------|
B|----------------------15--------------------------15--14--10--12--10---------12--10--|
G|--------------14--16------------------14------14----------------------9--11----------|
D|-------------------------------------------------------------------------------------|
A|-------------------------------------------------------------------------------------|
E|-------------------------------------------------------------------------------------|

E|--14--17--14--------------12--14--12------12------------------------------------|
B|----------------------15--------------------------15--14--10--12--10------------|
G|--------------14--16------------------14------14----------------------11--9--7--|
D|--------------------------------------------------------------------------------|
A|--------------------------------------------------------------------------------|
E|--------------------------------------------------------------------------------|

oh shit...

E|--10--12--10--0-------------10-----------------------------------------------------------------------|
B|-----------------0--10--12------12--10--12--10-------------------------------------------------------|
G|------------------------------------------------11--9--7-----7--9--10--9--7-----7--7--7--------------|
D|----------------------------------------------------------9------------------9--7--9--7--------------|
A|-----------------------------------------------------------------------------------------9--7--5-----|
E|--------------------------------------------------------------------------------------------------7--|

E|--------------------------------------------------------------------|
B|----------------------------------------------------10------10--10--|
G|--------------------7--9--10--9--7--9--7-----7--11------11------11--|
D|--------------7--9------------------------9-------------------------|
A|-----5--7--9--------------------------------------------------------|
E|--7-----------------------------------------------------------------|

E|--10--12--10--0-------------10-------------10------12--13--12--10--12--|
B|-----------------0--10--12------12-----12------12----------------------|
G|-----------------------------------------------------------------------|
D|-----------------------------------------------------------------------|
A|-----------------------------------------------------------------------|
E|-----------------------------------------------------------------------|

E|--12--14--15--14--12--14--12--------------------------------------------------------------------------|
B|------------------------------15--14--12--15--14--12--14--12------------------------------------------|
G|--------------------------------------------------------------14--11--14--16--16--16--16--14--11--14--|
D|------------------------------------------------------------------------------------------------------|
A|------------------------------------------------------------------------------------------------------|
E|------------------------------------------------------------------------------------------------------|

E|----------------------------------------------------------12--14--17--|
B|--------------------------------------15------15------15--------------|
G|--------------------------11--14--16------16------16------------------|
D|--14--12--------------12----------------------------------------------|
A|----------14--12--14--------------------------------------------------|
E|----------------------------------------------------------------------|

                                                        http://www.guitartabcreator.com
Добавлено: 01.01.2016
Другие материалы по этой песне:
  • Аккорды и текст

Страница создана 01.01.2016
http://primanota.ru/tauk/tumbler-chords.htm
Привет, Гость.
Предлагаем пройти революционный курс по гитаре.
Подарок от PrimaNota.Ru, забирай!