PrimaNota.ru - самый крупный в мире бесплатный архив песенных текстов, аккордов, табулатур и нот


Tauk - Dead Signal - таба, видео

Регистрация Запомнить меня
Войти через:  Facebook Google Twitter Vk Yandex Mail.ru

Tauk - Dead Signal - таба, видео

Печатать
Просмотров: 77
-------------------------------------------------------------------------------
                             Dead Signal - Tauk
-------------------------------------------------------------------------------
Tabbed by: David F
Email: sparks490@gmail.com

*Notes*
-Everything that is in this I tabbed by ear, and while I am still somewhat new to tabbing some of the little 
fills may not be 100% right but if anyone has any corrections to be made please let me know and I will gladly 
fix it.

**Because this song is an instrumental I've broken it up into phrases that I've labeled as verses bridges, and
  chorus**

Tuning: Standard

Legend:
************************************

| /   slide up
| \   slide down
| h   hammer-on
| p   pull-off
| ~   vibrato
| +   harmonic
| x   Mute note
| b   Bend
| pb  Pre-bend
| br  Bend release
| pbr Pre-bend release
| brb Bend release bend
| !    Sustained note
| R    Quarter Rest

************************************

Intro: 0:00 - 0:46


e|---------------------------------------------------------------------------|
B|---------------------------------------------------------------------------|
G|---------------------------------------------------------------------------|
D|--------------------4-4----------------------------------------------------|
A|--------6-6-4-4---------6-6-4-4--------------------------------------------|
E|----4-4---------7-7-------------7-7-4-4------------------------------------|
      * * * * * * * * * * * * * * * * * *

e|---------------------------------------------------------------------------|
B|---------------------------------------------------------------------------|
G|---------------------------------------------------------------------------|
D|--------------------4-4----------------------------------------------------|
A|--------6-6-4-4---------6-6-4-4--------------------------------------------|
E|----4-4---------7-7-------------7-7-4-4-4-4--------------------------------|
      * * * * * * * * * * * * * * * * * * * *

e|---------------------------------------------------------------------------|
B|---------------------------------------------------------------------------|
G|---------------------------------------------------------------------------|
D|--------------------4-4-----------------------------4-4--------------------| (x2)
A|--------6-6-4-4---------6-6-4-4---------6-6-4-4---------6-6-4-4------------|
E|----4-4---------7-7-------------7-7-4-4---------7-7-------------7-7--------|
      * *         * *             * * * *         * *             * *

e|---------------------------------------------------------------------------|
B|---------------------------------------------------------------------------|
G|--------------------4-4-----------------------------4-4--------------------|
D|--------------------4-4-----------------------------4-4--------------------| (x2)
A|--------6-6-4-4---------6-6-4-4---------6-6-4-4---------6-6-4-4------------|
E|----4-4---------7-7-------------7-7-4-4---------7-7-------------7-7-4\-----|

Verse 1: 0:46 - 1:07

e|---------------------------------------------------------------------------|
B|----9---9---9---9---9---9---9---9---12---12---12---12---8---8---8---8-8----|
G|----8---8---8---8---8---8---8---8---11---11---11---11---7---7---7---7-7----|
D|---------------------------------------------------------------------------|
A|---------------------------------------------------------------------------|
E|---------------------------------------------------------------------------|
      *   *   *   *   *   *   *   *   *    *    *    *    *   *   *   * *

e|--------------------------------------------------------------------------------|
B|----9---9---9---9---9---9---9---9---12---12---12!--12-12--8---8---8!--8-8-------|
G|----8---8---8---8---8---8---8---8---11---11---11!--11-11--7---7---7!--7-7-------|
D|--------------------------------------------------------------------------------|
A|--------------------------------------------------------------------------------|
E|--------------------------------------------------------------------------------|
      *   *   *   *   *   *   *   *   *    *                *   *   

e|--------------------------------------------------------------------------------|
B|----9---9---9---9---9---9---9---9---12---12---12!--12-12--8---8---8!--8-8-------|
G|----8---8---8---8---8---8---8---8---11---11---11!--11-11--7---7---7!--7-7-------|
D|--------------------------------------------------------------------------------|
A|--------------------------------------------------------------------------------|
E|--------------------------------------------------------------------------------|
      *   *   *   *   *   *   *   *   *    *                *   *

e|---------------------------------------------------------------------------|
B|----9---9---9---9---9---9---9---9---12---12---12!---12---8!----------------|
G|----8---8---8---8---8---8---8---8---11---11---11!---11---7!----------------|
D|---------------------------------------------------------------------------|
A|---------------------------------------------------------------------------|
E|---------------------------------------------------------------------------|
      *   *   *   *   *   *   *   *   *    *

Chorus 1: 1:07 - 1:18

e|---------------------------------------------------------------------------|
B|-------------------------------/8-------------------------------------8!---|
G|------------------------------------------------------11---11---------7!---|
D|--------------------------6h8-----------------------------------6h8--------|
A|---------------------------------------------------------------------------|
E|---------------------------------------------------------------------------|
      R   R   R   R   R                 R   R   R   R

Verse 2: 1:18 - 1:39

e|---------------------------------------------------------------------------|
B|---------------------------------------------------------------------------|
G|--------------------6-6------------------------------6-6-------------------|
D|--------9-9-8-8-6-6-----9-9-8-8-6-6------9-9-8-8-6-6-----9-9-8-8-6-6-------|
A|----7-7------------------------------7-7-----------------------------------|
E|---------------------------------------------------------------------------|
      * *         * *                  * *         * *       

e|---------------------------------------------------------------------------|
B|---------------------------------------------------------------------------|
G|--------------------6-6----------------------------------------------------|
D|--------9-9-8-8-6-6-----9-9-8-8-6-6------9-9-8-8-6-6-----6-6-8-8-9-9-------|
A|----7-7------------------------------7-7-------------7-7-------------------|
E|---------------------------------------------------------------------------|
      * *         * *                  * *             * *

e|--------------------------------------------------------------------------------|
B|--------------------------------------------------------------------------------|
G|------------11-----------11-----------11-----------11-----------11-----------11-|
D|----11p9---------11p9---------11p9---------11p9---------11p9---------11p9-------|
A|---------11-----------11-----------11-----------11-----------11-----------11----|
E|--------------------------------------------------------------------------------|

e|--------------------------------------------------------------------------------|
B|----------------------------------------------------------------------11!-------|
G|------------------11-----------11-----------11-----------11-----------11!-------|
D|----11p9--11p9---------11p9---------11p9---------11p9---------11p9--------------|
A|---------------11-----------11-----------11-----------11-----------11-----------|
E|--------------------------------------------------------------------------------|

Chorus 2: 1:39 - 2:00

e|---------------------------------------------------------------------------|
B|----9--9--12--7--7!------------------------4-------------------------------|
G|----8--8--11--6--6!------------4-4-6p4-----4--6p4----4/6-------------------|
D|----------------------6-4-4-6-6---------h6--------h6-----------------------|
A|---------------------------------------------------------------------------|
E|---------------------------------------------------------------------------|

e|---------------------------------------------------------------------------|
B|----9--9--12--14-15-14---14-14-12------------------------------------------|
G|----8--8--11--13-13-13------------13-12-11-------11!-----------------------|
D|-------------------------------------------13-12-11!-----------------------|
A|---------------------------------------------------------------------------|
E|---------------------------------------------------------------------------|

e|---------------------------------------------------------------------------|
B|----9--9--12--7--7!--------------------------------------------------------|
G|----8--8--11--6--6!---------------9h11-------------------------------------|
D|-----------------------------9h11------11-9--------------------------------|
A|--------------------------------------------11-----------------------------|
E|-----------------------/9h11-----------------------------------------------|

e|---------------------------------------------------------------------------|
B|----9--9--12--14-15-14----14(x8)---16(x8)----------------------------------|
G|----8--8--11--13-13-13----13(x8)---15(x8)----------------------------------|
D|---------------------------------------------------------------------------|
A|---------------------------------------------------------------------------|
E|---------------------------------------------------------------------------|

Bridge/Breakdown: 2:00 - 2:25

e|---------------------------------------------------------------------------|
B|---------------------------------------------------------------------------|
G|---------------------------------------------------------------------------|
D|-------------------------6--------------------------6----------------------| (x2)
A|----6-----9--8--6-----9--------6-----9--8--6-----9-------------------------|
E|------9-7---------9-7------------9-7---------9-7---------------------------|

e|---------------------------------------------------------------------------|
B|---------------------------------------------------------------------------|
G|------------11-----------11-----------11!-----------11-----------11!-------|
D|----11p9---------11p9---------11p9----------11p9---------11p9----11!-------|
A|---------11-----------11-----------11------------11-----------11-----------|
E|---------------------------------------------------------------------------|

e|---------------------------------------------------------------------------|
B|---------------------------------------------------------------------------|
G|---------------------------------------------------------------------------|
D|-------------------------6--------------------------6----------------------| (x2)
A|----6-----9--8--6-----9--------6-----9--8--6-----6-------------------------|
E|------9-7---------9-7------------9-7---------9-7---------------------------|
   *Crescendo the second time through*

Bridge 2: 2:25 - 2:47

e|---------------------------------------------------------------------------------|
B|------------------------------------------------------------------------7--------|
G|------------------6!---/8---6-------------------------------6!---/8---6---6!-----|
D|----6!---8!---9!---------------9---6!-------/9!---8!---9!------------------------|
A|---------------------------------------------------------------------------------|
E|---------------------------------------------------------------------------------|

e|---------------------------------------------------------------------------------|
B|------------------------------------------------------------------------7--------|
G|------------------6!---/8---6-------------------------------6!---/8---6---6!-----|
D|----6!---8!---9!---------------9---6!-------/9!---8!---9!------------------------|
A|---------------------------------------------------------------------------------|
E|---------------------------------------------------------------------------------|

Verse 3: 2:47 - 3:08

e|---------------------------------------------------------------------------|
B|---------------------------------------------------------------------------|
G|--------------------6-6------------------------------6-6-------------------|
D|--------9-9-8-8-6-6-----9-9-8-8-6-6------9-9-8-8-6-6-----9-9-8-8-6-6-------|
A|----7-7------------------------------7-7-----------------------------------|
E|---------------------------------------------------------------------------|
      * *         * *                  * *         * * 

e|---------------------------------------------------------------------------|
B|---------------------------------------------------------------------------|
G|--------------------6-6----------------------------------------------------|
D|--------9-9-8-8-6-6-----9-9-8-8-6-6------6-6-8-8-6-6-----6-6-----6-6-------|
A|----7-7------------------------------7-7-------------7-7-----7-7-----------|
E|---------------------------------------------------------------------------|
      * *         * *                  * *             * *     * *

e|---------------------------------------------------------------------------|
B|---------------------------------------------------------------------------|
G|---------------------------------------------------------------------------|
D|--------------------4-4--------------------------------4-4-----------------|
A|--------6-6-4-4---------6-6-4-4------------6-6-4-4---------6-6-4-4---------|
E|----4-4---------7-7-------------7-7----4-4---------7-7-------------7-7-----|

e|---------------------------------------------------------------------------|
B|---------------------------------------------------------------------------|
G|---------------------------------------------------------------------------|
D|--------------------4-4--------------------------------4-4-----------------|
A|--------6-6-4-4---------6-6-4-4------------6-6-4-4---------6-6-4-4---------|
E|----4-4---------7-7-------------7-7----4-4---------7-7-------------7-7-----|

Outro: 3:08 - 3:32

e|-----------------------------------------------------------------------------------|
B|-----------------------------------------------------------------------------------|
G|------------11-----------11-----------11-----------11-----------11-----------11----|
D|----11p9---------11p9---------11p9---------11p9---------11p9---------11p9----------|
A|---------11-----------11-----------11-----------11-----------11-----------11-------|
E|-----------------------------------------------------------------------------------|

e|-----------------------------------------------------------------------------------|
B|-----------------------------------------------------------------------------------|
G|-----------------11-----------11-----------11-----------11-----------11(x4)--------|
D|----11p9-11p9---------11p9---------11p9---------11p9---------11p9----11(x4)--------|
A|--------------11-----------11-----------11-----------11-----------11---------------|
E|-----------------------------------------------------------------------------------|

e|-----------------------------------------------------------------------------------|
B|-----------------------------------------------------------------------------------|
G|---------------11-----------11-----------11-----------11-----------11-----------11-|
D|----11-11p9---------11p9---------11p9---------11p9---------11p9---------11p9-------|
A|------------11-----------11-----------11-----------11-----------11-----------11----|
E|-----------------------------------------------------------------------------------|

e|-----------------------------------------------------------------------------------|
B|-----------------------------------------------------------------------------------|
G|-----------------11-----------11-----------11-----------11-----------11\-----------|
D|----11p9-11p9---------11p9---------11p9---------11p9---------11p9----11\-----------|
A|--------------11-----------11-----------11-----------11-----------11---------------|
E|-----------------------------------------------------------------------------------|


Thank you very much for looking at my tab.  If you have any questions don't hesitate to email me!
Добавлено: 01.01.2016
Вам также может быть интересно:
Другие материалы по этой песне:
  • Аккорды и текст

Страница создана 01.01.2016
http://primanota.ru/tauk/dead-signal-chords.htm
Привет, Гость.
Предлагаем пройти революционный курс по гитаре.
Подарок от PrimaNota.Ru, забирай!