PrimaNota.ru - самый крупный в мире бесплатный архив песенных текстов, аккордов, табулатур и нот


Tatsuya Shibata - Shall Never Surrender - таба, видео

Регистрация Запомнить меня
Войти через:  Facebook Google Twitter Vk Yandex Mail.ru

Tatsuya Shibata - Shall Never Surrender - таба, видео

Печатать
Просмотров: 168
-------------------------------------------------------------------------------
                             Shall Never Surrender - Tatsuya Shibata
-------------------------------------------------------------------------------
Tabbed by: Sanan Fikriz

Soundtrack from the ending of the game Devil May Cry 4, made by Tetsuya Shibata game 
music composer.
This is from the ending of the game Devil May Cry 4 tabbed to guitar.

This is how the song is played on guitar: https://www.youtube.com/watch?v=h6kqb9fdnrU
The Full song: https://www.youtube.com/watch?v=cye6HOJ36Qo


e|--------0-------------------------------------------------------------|
B|3---------------------------------------------------------------------|
G|----------------------------------------------------------------------|
D|----------------------------------------------------------------------|
A|----------------------------------------------------------------------|
E|----------------------------------------------------------------------|

e-1-----------1-3-----0--------------------------------------------0----|
B-3-------3-------1-------3---1.---3-------3---1.---1----------3--------|
G-2---2-----------0----------------3-------3--------2-------2.----------|
D-0------------------------------------3----------------3---------------|
A-----------------3----------------1------------------------------------|
E---------------------------------------------------1-------------------|

e-1-------1---1.---8---5.---1--------1-------1----------------5---8.----|
B-3-------3--------5------------1.---3-------3-------3--------5---------|
G-2---2------------5-----------------3-------3-------3------------------|
D-0--------------------------------------3-------3---3---3.-------------|
A------------------0-----------------1----------------------------------|
E-----------------------------------------------------------------------|

e-6-------6---8---6---5--------------------1-------1---0---0---1.-------|
B-3-------3-------3-------6--------3-------3----------------------------|
G-3---3-----------3-----------5.---3-------3----------------------------|
D-5---------------3--------------------3-------3------------------------|
A----------------------------------1---------------3-------4------------|
E-----------------------------------------------------------------------|

e-1-----------0-1-0-----------------------------------------------------|
B---------3---------------1-------3-------3-------3-------5-------------|
G-----2---------------0-------0-----------3-------3-------5-------------|
D-0-----------------------------------3---3---3-------3---5-------------|
A-----------------3---------------1-------------------------------------|
E-----------------------------------------------------------------------|

e-1-----------1-3-----0------------------------3.-----------------0-----|
B-3-------3-------1-------3---1.---3-------3--------1-------1-3---------|
G-2---2-----------0----------------3-------3--------2-----2-------------|
D-0------------------------------------3---3------------3---------------|
A-----------------3----------------1------------------------------------|
E---------------------------------------------------1-------------------|

e-1-------1---1.---8---5.---1--------1-------1----------------5---8.----|
B-3-------3--------5------------1.---3-------3-------3--------5---------|
G-2---2------------5-----------------3-------3-------3------------------|
D-0--------------------------------------3-------3---3---3.-------------|
A------------------0-----------------1----------------------------------|
E-----------------------------------------------------------------------|

e-6-----------6-8-6---5--------------------1-------1---0---0---1.-------|
B-3-------3-------3-------6--------3-------3----------------------------|
G-3---3-----------3-----------5.---3-------3----------------------------|
D-5---------------3--------------------3-------3------------------------|
A----------------------------------1---------------3-------4------------|
E-----------------------------------------------------------------------|

e-1-----------0-1-0-----------------------------------------------------|
B---------3---------------1-------3-------3-------3-------5-------------|
G-----2---------------0-------0-----------3-------3-------5-------------|
D-0-----------------------------------3---3---3-------3---5-------------|
A-----------------3---------------1-----------------------3-------------|
E-----------------------------------------------------------------------|

e-----------------2---------------2---5.-----2--------------------------|
B-------------3---------------3--------------3--------------------------|
G---------2---------------2------------------2--------------------------|
D-----2---------------2----------------------0--------------------------|
A-5---------------------------------------------------------------------|
E-----------------------------------------------------------------------|

************************************
Добавлено: 16.05.2016
Другие материалы по этой песне:
  • Аккорды и текст

Страница создана 16.05.2016
http://primanota.ru/tatsuya-shibata/shall-never-surrender-chords.htm
Привет, Гость.
Предлагаем пройти революционный курс по гитаре.
Подарок от PrimaNota.Ru, забирай!