PrimaNota.ru - самый крупный в мире бесплатный архив песенных текстов, аккордов, табулатур и нот


Taste - Born On The Wrong Side Of Time - таба, бас-таба, видео

Регистрация Запомнить меня
Войти через:  Facebook Google Twitter Vk Yandex Mail.ru

Taste - Born On The Wrong Side Of Time - таба, бас-таба, видео

Печатать
Просмотров: 99
Авторы музыки: Rory Gallagher
Авторы текста: Rory Gallagher
BORN ON THE WRONG SIDE OF TIME

As recorded by Taste
(From the 1969 Album TASTE)

Words and Music by Rory Gallagher

Transcribed by Slowhand



           D                  Cadd9                  G                 Fmaj13
      x x 0 2 3 2          x 3 2 0 3 3          3 2 0 0 0 3          x 0 3 2 3 0

          Em                  Em7/B                 E5                  Cmaj9
      x x x 9 0 0         x x x 9 0 10          x x x 9 0 7          x 3 0 0 0 0




Gtr I (E A D G B E) - 'Rory Gallagher - Acoustic Guitar '
Gtr II (E A D G B E) - 'Rory Gallagher - Electric Guitar (clean)'
Gtr III (E A D G B E) - 'Rory Gallagher - Electric Guitar (w/ distortion)'


 Intro
  Q=145
  D    Cadd9   G                         D    Cadd9   G
 4/4
  Gtr I (Ac. Gtr.)
  Q.   E +E  E Q    +Q   E E E E S S E   Q.   E +E  E Q    +Q   E E E E S S E
|-2----0-(0)---3--|-(3)----------------|-2----0-(0)---3--|-(3)----------------|
|-3----3-(3)-3-3--|-(3)----------------|-3----3-(3)-3-3--|-(3)----------------|
|-2----0-(0)-0-0--|-(0)----------------|-2----0-(0)-0-0--|-(0)----------------|
|-0----------0-0--|-(0)----------------|-0----------0-0--|-(0)----------------|
|------3-(3)------|--------0-2-0-2p0---|------3-(3)------|--------0-2-0-2p0---|
|--------------3--|-(3)--3-----------3-|--------------3--|-(3)--3-----------3-|
|
| Gtr II (Clean El. Gtr.)
| W                  W                   Q.   E +E  E Q    +Q   E E E E S S E
|-----------------|--------------------|-2----0-(0)---3--|-(3)----------------|
|-----------------|--------------------|-3----3-(3)-3-3--|-(3)----------------|
|-----------------|--------------------|-2----0-(0)-0-0--|-(0)----------------|
|-----------------|--------------------|-0----------0-0--|-(0)----------------|
|-----------------|--------------------|------3-(3)------|--------0-2-0-2p0---|
|-----------------|--------------------|--------------3--|-(3)--3-----------3-|


  D    Cadd9   G
  Q.   E +E  E Q    +Q   E E E E S S E   W
|-2----0-(0)---3--|-(3)----------------|-----------------|
|-3----3-(3)-3-3--|-(3)----------------|-----------------|
|-2----0-(0)-0-0--|-(0)----------------|-----------------|
|-0----------0-0--|-(0)----------------|-----------------|
|------3-(3)------|--------0-2-0-2p0---|-----------------|
|--------------3--|-(3)--3-----------3-|-----------------|
|
| Q.   E +E  E Q    +Q   E E E E S S E   E Q  a E Q  E E
|-2----0-(0)---3--|-(3)----------------|-----------------|
|-3----3-(3)-3-3--|-(3)----------------|-----------------|
|-2----0-(0)-0-0--|-(0)----------------|-----------------|
|-0----------0-0--|-(0)----------------|-----------------|
|------3-(3)------|--------0-2-0-2p0---|---0------0----0-|
|--------------3--|-(3)--3-----------3-|-3----3s5----2---|


  D
  Gtr I
  H     +E E E S S   Q  Q  E E E S S
  |      | | | | |   |  |  | | | | |
  /      / / / / /   /  /  / / / / /

  Gtr III (El. Gtr. w/ dist.)
                     <
  H.         Q       W
|-2----------------|-----------------|
|-3----------3S====|=7---------------|
|-2----------2S====|=7---------------|
|-0----------0-----|-0---------------|
|------------------|-----------------|
|------------------|-----------------|


   Q      Q   E   E  E S S    Q   Q  E E E E
   |      |   |   |  | | |    |   |  | | | |
   /      /   /   /  / / /    /   /  / / / /

   H.                Q        H.         Q
|--------------------------|-10--------------||
|-10-----------------------|--7--------------||
|--9b11======(9)r(9)-7-----|--7--------------||
|--------------------0-----|--0--------------||
|--------------------------|-----------------||
|--------------------------|-----------------||
   H         +E  +E  Q


 Interlude
  $
  D
  E   E E   E E   E E   E   E E E E E E E E
  |   | |   | |   | |   |   | | | | | | | |
  /   / /   / /   / /   /   / / / / / / / /

  S S E S S E S S E S S E   W
|-------------------------|-5---------------|
|-7p5---7p5---7p5---7p5---|-----------------|
|-----7-----7-----7-----7-|-----------------|
|-------------------------|-----------------|
|-------------------------|-----------------|
|-------------------------|-----------------|


  E   E E   E E   E E   E   E E E E E E E E
  |   | |   | |   | |   |   | | | | | | | |
  /   / /   / /   / /   /   / / / / / / / /

  S S E S S E S S E S S E   W
|-------------------------|-----------------|
|-7p5---7p5---7p5---7p5---|-5---------------|
|-----7-----7-----7-----7-|-----------------|
|-------------------------|-----------------|
|-------------------------|-----------------|
|-------------------------|-----------------|


   1st - 3rd Verses
    D                Fmaj13             D                Fmaj13
    Gtr I
    Q  E E E E E E   Q  E E +E  E E E   Q  E E E E E E   Q  E E E E E E
    |  | | | | | |   |  | |  |  | | |   |  | | | | | |   |  | | | | | |
    /  / / / / / /   /  / /  /  / / /   /  / / / / / /   /  / / / / / /

    Gtr II
    Q  E E E E E E   Q  E E +E  E E E   Q  E E E E E E   Q  E E E E E E
||--2--2-2-2-2-2-2-|-0--0-0-(0)-0-0-0-|-2--2-2-2-2-2-2-|-0--0-0-0-0-0-0-|
||o-3--3-3-3-3-3-3-|-3--3-3-(3)-3-3-3-|-3--3-3-3-3-3-3-|-3--3-3-3-3-3-3-|
||--2--2-2-2-2-2-2-|-2--2-2-(2)-2-2-2-|-2--2-2-2-2-2-2-|-2--2-2-2-2-2-2-|
||--0--0-0-0-0-0-0-|-3--3-3-(3)-3-3-3-|-0--0-0-0-0-0-0-|-3--3-3-3-3-3-3-|
||o----------------|------------------|----------------|----------------|
||-----------------|------------------|----------------|----------------|


  D                Fmaj13          D                Fmaj13
  Q  E E E E E E   W               Q  E E E E E E   Q  E E +E  E E E
  |  | | | | | |   |               |  | | | | | |   |  | |  |  | | |
  /  / / / / / /   /               /  / / / / / /   /  / /  /  / / /

                   Gtrs II, III    Gtr II
                   |-3-| |-3-|
  Q  E E E E E E   Q Q Q Q Q Q     Q  E E E E E E   Q  E E +E  E E E
|-2--2-2-2-2-2-2-|---------------|-2--2-2-2-2-2-2-|-0--0-0-(0)-0-0-0--|
|-3--3-3-3-3-3-3-|---------------|-3--3-3-3-3-3-3-|-3--3-3-(3)-3-3-3--|
|-2--2-2-2-2-2-2-|---------------|-2--2-2-2-2-2-2-|-2--2-2-(2)-2-2-2--|
|-0--0-0-0-0-0-0-|---------------|-0--0-0-0-0-0-0-|-3--3-3-(3)-3-3-3--|
|----------------|-3-2-0---------|----------------|-------------------|
|----------------|-------3-2-0---|----------------|-------------------|


                                                     1.
                                            To Coda
  D                Fmaj13           D                 Fmaj13
  Q  E E E E E E   Q  E E E E E E   Q  E E E E E E    W
  |  | | | | | |   |  | | | | | |   |  | | | | | |    |
  /  / / / / / /   /  / / / / / /   /  / / / / / /    /

                                                      Gtrs II, III
                                                      |-3-| |-3-|
  Q  E E E E E E   Q  E E E E E E   Q  E E E E E E    Q Q Q Q Q Q
|-2--2-2-2-2-2-2-|-0--0-0-0-0-0-0-|-2--2-2-2-2-2-2--|----------------||
|-3--3-3-3-3-3-3-|-3--3-3-3-3-3-3-|-3--3-3-3-3-3-3--|---------------o||
|-2--2-2-2-2-2-2-|-2--2-2-2-2-2-2-|-2--2-2-2-2-2-2--|----------------||
|-0--0-0-0-0-0-0-|-3--3-3-3-3-3-3-|-0--0-0-0-0-0-0--|----------------||
|----------------|----------------|-----------------|-3-2-0---------o||
|----------------|----------------|-----------------|-------3-2-0----||


  2.
  Fmaj13          D    Cadd9   G
                                                        2/4
  Gtr I
  W               Q  E E +E  E Q    +Q   E E E E S S E   H
|-0-------------|-2--0-0-(0)---3--|-(3)----------------|------||
|-3-------------|-3--3-3-(3)-3-3--|-(3)----------------|------||
|-2-------------|-2--0-0-(0)-0-0--|-(0)----------------|------||
|-3-------------|-0----------0-0--|-(0)----------------|------||
|---------------|------3-(3)------|--------0-2-0-2p0---|------||
|---------------|--------------3--|-(3)--3-----------3-|-0----||
|
| Gtrs II, III    Gtr II
| |-3-| |-3-|
| Q Q Q Q Q Q     Q  E E +E  E Q    +Q   E E E E S S E   H
|---------------|-2--0-0-(0)---3--|-(3)----------------|------||
|---------------|-3--3-3-(3)-3-3--|-(3)----------------|------||
|---------------|-2--0-0-(0)-0-0--|-(0)----------------|------||
|---------------|-0----------0-0--|-(0)----------------|------||
|-3-2-0---------|------3-(3)------|--------0-2-0-2p0---|------||
|-------3-2-0---|--------------3--|-(3)--3-----------3-|-0----||


 Bridge
  Q=109
  Em                  Em7/B               Emb5              E5
 4/4
   E  E E E E E E E    E E E E  E E E E   E E E E E E E E   E E E E E E E E
|--0--------0-------|-10-------10-------|-8-------8-------|-7-------7-------|
|-----0---0---0---0-|----0---0----0---0-|---0---0---0---0-|---0---0---0---0-|
|-------9-------9---|------9--------9---|-----9-------9---|-----9-------9---|
|-------------------|-------------------|-----------------|-----------------|
|-------------------|-------------------|-----------------|-----------------|
|-------------------|-------------------|-----------------|-----------------|
|
| +H        H          W                  W                 W
|-----------0-------|-------------------|-----------------|-----------------|
|-------------------|-------------------|-----------------|-----------------|
|-------------------|-------------------|-----------------|-----------------|
|-------------------|-------------------|-----------------|-----------------|
|-------------------|-------------------|-----------------|-----------------|
|-(0)---------------|-------------------|-----------------|-----------------|


    Em                Em7/B
    E E E E E E E E    E E E E  E E E E
||--0-------0-------|-10-------10-------|
||o---0---0---0---0-|----0---0----0---0-|
||------9-------9---|------9--------9---|
||------------------|-------------------|
||o-----------------|-------------------|
||------------------|-------------------|
|
|   W                  W
||------------------|-------------------|
||o-----------------|-------------------|
||------------------|-------------------|
||------------------|-------------------|
||o-----------------|-------------------|
||------------------|-------------------|


  Emb5                 E5
    E  E E E E E E E    E  E E E E E E E
|---8--------8-------|--7--------7--------|
|------0---0---0---0-|-----0---0---0---0--|
|--------9-------9---|-------9-------9----|
|--------------------|--------------------|
|--------------------|--------------------|
|--------------------|--------------------|
|
|   W                   W
|-<12>---------------|-<7>----------------|
|--------------------|--------------------|
|--------------------|--------------------|
|--------------------|--------------------|
|--------------------|--------------------|
|--------------------|--------------------|


  Em                   Em7/B
    E  E E E E E E E    E E E E  E E E E
|---0--------0-------|-10-------10-------|
|------0---0---0---0-|----0---0----0---0-|
|--------9-------9---|------9--------9---|
|--------------------|-------------------|
|--------------------|-------------------|
|--------------------|-------------------|
|
|   W                   W
|-<12>---------------|-------------------|
|--------------------|-------------------|
|--------------------|-------------------|
|--------------------|-------------------|
|--------------------|-------------------|
|--------------------|-------------------|


 1.,2.
  Emb5                 E5
    E  E E E E E E E   E E E E E E E E  3x
|---8--------8-------|-7-------7--------||
|------0---0---0---0-|---0---0---0---0-o||
|--------9-------9---|-----9-------9----||
|--------------------|------------------||
|--------------------|-----------------o||
|--------------------|------------------||
|
|   W                  W                3x
|-<12>---------------|------------------||
|--------------------|-----------------o||
|--------------------|------------------||
|--------------------|------------------||
|--------------------|-----------------o||
|--------------------|------------------||


  3.
  Emb5              E5
  Gtr I
                             |-3-|
  E E E E E E E E    H.      E E E
|-8-------8-------|-^7-----------0-|
|---0---0---0---0-|-^0---------0---|
|-----9-------9---|-^9-------7-----|
|-----------------|----------------|
|-----------------|----------------|
|-----------------|----------------|


                             Cmaj9
  |-3-| |-3-|
  E E E E E E E. S +S  S E    W          +W
|-----0-----0--------------|-^0--------|-(0)----||
|---0-----0----------------|-^0--------|-(0)----||
|-5-----4-----2--0-(0)-----|-^0--------|-(0)----||
|----------------------0h2-|-^0--------|-(0)----||
|--------------------------|-^3--------|-(3)----||
|--------------------------|-----------|--------||


 Interlude
    Q=145
    D   Cadd9   G
  Gtr I
  E Q   E +E  E Q    +Q   E E E E S S E
|---2---0-(0)---3--|-(3)----------------|
|---3---3-(3)-3-3--|-(3)----------------|
|---2---0-(0)-0-0--|-(0)----------------|
|---0---------0-0--|-(0)----------------|
|-------3-(3)------|--------0-2-0-2p0---|
|---------------3--|-(3)--3-----------3-|
|
| Gtr II
| Q   E E +E  E Q    +Q   E E E E S S E
|-2---0-0-(0)---3--|-(3)----------------|
|-3---3-3-(3)-3-3--|-(3)----------------|
|-2---0-0-(0)-0-0--|-(0)----------------|
|-0-----------0-0--|-(0)----------------|
|-------3-(3)------|--------0-2-0-2p0---|
|---------------3--|-(3)--3-----------3-|


  D    Cadd9   G
  Q.   E +E  E Q    +Q   E E E E S S E
|-2----0-(0)---3--|-(3)-----------------|
|-3----3-(3)-3-3--|-(3)-----------------|
|-2----0-(0)-0-0--|-(0)-----------------|
|-0----------0-0--|-(0)-----------------|
|------3-(3)------|--------0-2-0-2p0----|
|--------------3--|-(3)--3-----------3--|
|
| Q.   E +E  E Q    +Q   E E E E S S E
|-2----0-(0)---3--|-(3)-----------------|
|-3----3-(3)-3-3--|-(3)-----------------|
|-2----0-(0)-0-0--|-(0)-----------------|
|-0----------0-0--|-(0)-----------------|
|------3-(3)------|--------0-2-0-2p0----|
|--------------3--|-(3)--3-----------3--|


  Q  E E +E  E Q    +Q   E E E E S S E   E Q  a E Q  E E
|-2--0-0-(0)---3--|-(3)----------------|-----------------|
|-3--3-3-(3)-3-3--|-(3)----------------|-----------------|
|-2--0-0-(0)-0-0--|-(0)----------------|-----------------|
|-0----------0-0--|-(0)----------------|-----------------|
|------3-(3)------|--------0-2-0-2p0---|---0------0----0-|
|--------------3--|-(3)--3-----------3-|-3----3s5----2---|
|
| Q  E E +E  E Q    +Q   E E E E S S E   E Q  a E Q  E E
|-2--0-0-(0)---3--|-(3)----------------|-----------------|
|-3--3-3-(3)-3-3--|-(3)----------------|-----------------|
|-2--0-0-(0)-0-0--|-(0)----------------|-----------------|
|-0----------0-0--|-(0)----------------|-----------------|
|------3-(3)------|--------0-2-0-2p0---|---0------0----0-|
|--------------3--|-(3)--3-----------3-|-3----3s5----2---|


  D
  Gtr I
  Q   E E E E E E      Q   Q  E E E S S
  |   | | | | | |      |   |  | | | | |
  /   / / / / / /      /   /  / / / / /

  Gtr II
  H.          E S S    H.         E E
|-2-----------------|-10----------------|
|-3-----------3-x-x-|--7----------------|
|-2-----------2-x-x-|--7----------------|
|-0-----------0-x-x-|--0----------0-0---|
|-------------------|-------------------|
|-------------------|-------------------|


   E      E E E  E   E  E E    E  S S E S S E E  Q
   |      | | |  |   |  | |    |  | | | | | | |  |
   /      / / /  /   /  / /    /  / / / / / / /  /

  Gtr III
   H.                   E E    H.                Q
|---------------------------|--------------------0----||
|-10------------------------|-------------------10----||
|--9pb11========(9)r(9)-7h9-|-11----------------------||
|-----------------------0---|-------------------------||
|---------------------------|-------------------------||
|---------------------------|-------------------------||
   H            +E  +E  Q


 Guitar Solo
  D                    Cadd9
   Q     E E E E E E    E     E  E E  E     E E E
   |     | | | | | |    |     |  | |  |     | | |
   /     / / / / / /    /     /  / /  /     / / /

   W                    S  S  E  q    H
|--------------------|----------------------------|
|-13b15--------------|-12p10----10----------------|
|--------------------|-------12------12b14========|
|--------------------|----------------------------|
|--------------------|----------------------------|
|--------------------|----------------------------|


  D                                        Cadd9
    E   E  E        E  E      E  E     E    E  E  E       E  E      E E    E
    |   |  |        |  |      |  |     |    |  |  |       |  |      | |    |
    /   /  /        /  /      /  /     /    /  /  /       /  /      / /    /

           |--3--|                                |--3--|
   +Q      S  S  S  E  Q         S  S  E    E  E  S  S  S E +Q        S E.
|----------------------------------------|------------------------------------|
|----------------------------------------|------------------------------------|
|-(12)r---10h12p10----10b10.5------------|------------------------------------|
|------------------12-----------10h12-10-|-10-------------------------0-0-----|
|----------------------------------------|----12-10h12p10-8-(8)b8.5-----------|
|----------------------------------------|------------------------------------|


  D                                        Cadd9
   |------3-------|  |---3----|
   Q    Q         Q  Q    Q   Q             E  Q        E       E  E E E
   |    |         |  |    |   |             |  |        |       |  | | |
   /    /         /  /    /   /             /  /        /       /  / / /

                                 |--3--|
   E  E    Q         E  E   E    S  S  S    E  E  E     E      +H
|----------------------------------------|-------------------------------|
|----------------------------------------|-------------------------------|
|---------10b10.5------------------------|-------12b14-12b14==(12)-------|
|-10-12-------------12-10-------10h12p10-|-12-10-------------------------|
|----------------------------------------|-------------------------------|
|----------------------------------------|-------------------------------|


  D                           Cadd9
    E  E   E   E   E  E E E     E  E E E E E E E
    |  |   |   |   |  | | |     |  | | | | | | |
    /  /   /   /   /  / / /     /  / / / / / / /

   +Q     +E   E  +H           +W
|---------------------------|---------------------|
|---------------------------|---------------------|
|-(12)r==(12)---------------|---------------------|
|-------------10-(10)-------|-(10)----------------|
|---------------------------|---------------------|
|---------------------------|---------------------|


  D                        Cadd9
                           |--3--|     |---3----|
    Q   Q   E     E  E E   Q Q   Q     Q    Q   Q
    |   |   |     |  | |   | |   |     |    |   |
    /   /   /     /  / /   / /   /     /    /   /

   +H       S  S  E  q     Q   E    E  E  E   E    S S
|------------------------|-----------------------------|
|------------------------|-----------------------------|
|------------------------|---------10----12-------10s9-|
|-(10)-----12p10----10---|------------11---------------|
|----------------12------|-----------------------------|
|------------------------|-----------------------------|


  D                   Cadd9
   Q    Q   E E E E     Q    E  E    E  E E E
   |    |   | | | |     |    |  |    |  | | |
   /    /   / / / /     /    /  /    /  / / /

   E E  H.             +Q    E  S  S E  E E E
|-------------------|-------------------------|
|-------------------|-------------------------|
|----9--------------|-------------------------|
|-12---12-----------|-(12)--10----------------|
|-------------------|----------10h12---10---8-|
|-------------------|-------------------------|


  D                                  Cadd9
   Q      Q         E   E  E     E     E   E  Q        E  E  E     E
   |      |         |   |  |     |     |   |  |        |  |  |     |
   /      /         /   /  /     /     /   /  /        /  /  /     /

  +E   E  S  S  E  +E   E  Q          +Q      S  S  E  E  E  S  S  E
|----------------------------------|---------------------------------|
|----------------------------------|---------------------------------|
|----------------------10-12b14====|=(12)r---12p10----10-12-12p10----|
|--------10h12p10-(10)-------------|---------------12-------------12-|
|-(8)-12---------------------------|---------------------------------|
|----------------------------------|---------------------------------|


  D                                    Cadd9
   Q              Q            E  E  E  E        +E  E   Q                           E    E   E  E
   |              |            |  |  |  |         |  |   |                           |    |   |  |
   /              /            /  /  /  /         /  /   /                           /    /   /  /

                      |--3--|
   E.    +S      +E   S  S  S  E  E  E  E        +Q     +S       +S   +S       +S   +E   +E   E  E
|---------------------------------------------|------------------------------------------------------|
|-13b15r(13)b15-(13)--------------------------|------------------------------------------------------|
|--------------------10h12p10-10----10-12b14==|=(12)r==(12)b14==(12)r(12)b14==(12)-(12)r(12)-10------|
|--------------------------------12-----------|-------------------------------------------------(0)--|
|---------------------------------------------|------------------------------------------------------|
|---------------------------------------------|------------------------------------------------------|


  D               Cadd9
   E E Q   E  E E  E       E        E E  E    +E        E  E    E
   | | |   |  | |  |       |        | |  |     |        |  |    |
   / / /   /  / /  /       /        / /  /     /        /  /    /

                           |--3--|             |--3--|
   H       E  E E  S  S    S  S  S  E E  S  S  S  S  S  E  S E.
|-----------------------|-----------------------------------------|
|-----------------------|-----------------------------------------|
|-----------------------|---------------------------------10s9----|
|-12------10------------|-10h12p10------------10h12p10------------|
|------------12---10h12-|----------12---10h12----------12---------|
|-----------------------|-----------------------------------------|


  D                   Cadd9
   E  E    E E  E E E E     E  E E E E E E E
   |  |    | |  | | | |     |  | | | | | | |
   /  /    / /  / / / /     /  / / / / / / /

   E  S S  E E  H          +H.           Q
|-----------------------|--------------------|
|-----------------------|--------------------|
|-12-10s9----9----------|----------------0---|
|---------12---12-------|-(12)---------------|
|-----------------------|--------------------|
|-----------------------|--------------------|


  D
   W               +W                    W             +W
   |                |                    |              |
   /                /                    /              /

   W               +Q.    +E  Q   E E    W              E  E  E E H
|---------------|---------------------|-10-----------|-----------------|
|-10------------|---------------------|-10-----------|-----------------|
|-12b14=========|=(12)r==(12)s4s=14---|-12b14--------|-12-10-----------|
|---------------|---------------------|--------------|-------12--------|
|---------------|---------------------|--------------|-----------------|
|---------------|---------------------|--------------|-----------------|


                                    Outro
                   D.S. al Coda   &
                                     N.C.
   W             +W                  W               W
   |              |
   /              /

                                     Gtrs II, III
                                     |-3-| |-3-|     |-3-| |-3-|
   W              q       Q  H       Q Q Q Q Q Q     Q Q Q Q Q Q
|-10-----------|------------------||---------------|----------------|
|-10-----------|------------------||---------------|----------------|
|-12b14--------|-12b12.5----------||---------------|----------------|
|--------------|------------------||---------------|----------------|
|--------------|------------------||-3-2-0---------|-3-2-0----------|
|--------------|------------------||-------3-2-0---|-------3-2-0----|


    Gtr II
      |-3-| |-3-|     |-3-| |-3-|     |-3-| |-3-|
    a Q Q Q Q Q Q   a Q Q Q Q Q Q   a Q Q Q Q Q Q
||----------------|---------------|----------------||
||o---------------|---------------|---------------o||
||--7h9-7-5-------|-7h9-7-5-------|-7h9-7-5--------||
||----------9-7-5-|---------9-7-5-|---------9-7-5--||
||o---------------|---------------|---------------o||
||----------------|---------------|----------------||
|
|   Gtr III
|     |-3-| |-3-|     |-3-| |-3-|     |-3-| |-3-|
|     Q Q Q Q Q Q     Q Q Q Q Q Q     Q Q Q Q Q Q
||----------------|---------------|----------------||
||o---------------|---------------|---------------o||
||----------------|---------------|----------------||
||----------------|---------------|----------------||
||o---3-2-0-------|---3-2-0-------|---3-2-0-------o||
||----------3-2-0-|---------3-2-0-|---------3-2-0--||


Duration Legend
---------------
W - whole; H - half; Q - quarter; E - 8th; S - 16th; T - 32nd; X - 64th; a - acciaccatura
+ - note tied to previous; . - note dotted; .. - note double dotted
Uncapitalized letters represent notes that are staccato (1/2 duration)
Irregular groupings are notated above the duration line
Duration letters will always appear directly above the note/fret number it represents the
duration for.  Duration letters with no fret number below them represent rests.  Multi-
bar rests are notated in the form Wxn, where n is the number of bars to rest for.  Low
melody durations appear below the staff

Tablature Legend
----------------
 h   - hammer-on
 p   - pull-off
 b   - bend
 pb  - pre-bend
 r   - bend release (if no number after the r, then release immediately)
 /\  - slide into or out of (from/to "nowhere")
 s   - legato slide
 S   - shift slide
  - natural harmonic
[n]  - artificial harmonic
n(n) - tapped harmonic
 ~   - vibrato
 tr  - trill
 T   - tap
 TP  - trem. picking
 PM  - palm muting
\n/  - tremolo bar dip; n = amount to dip
 \n  - tremolo bar down
 n/  - tremolo bar up
/n\  - tremolo bar inverted dip
 =   - hold bend; also acts as connecting device for hammers/pulls
 <>  - volume swell (louder/softer)
 x   - on rhythm slash represents muted slash
 o   - on rhythm slash represents single note slash

Misc Legend
-----------
 |  - bar
||  - double bar
||o - repeat start
o|| - repeat end
*|  - double bar (ending)
 :  - bar (freetime)
 $  - Segno
 &  - Coda
Tempo markers -  = BPM(8/16=s8/s16), where s8 = swing 8ths, s16 = swing 16ths
Добавлено: 06.11.2015
Вам также может быть интересно:
Другие материалы по этой песне:

Страница создана 27.09.2013
http://primanota.ru/taste/born-on-the-wrong-side-of-time-chords.htm
Привет, Гость.
Предлагаем пройти революционный курс по гитаре.
Подарок от PrimaNota.Ru, забирай!