PrimaNota.ru - самый крупный в мире бесплатный архив песенных текстов, аккордов, табулатур и нот


Tashaki Miyaki - I Only Have Eyes For You Cover - таба, видео

Регистрация Запомнить меня
Войти через:  Facebook Google Twitter Vk Yandex Mail.ru

Tashaki Miyaki - I Only Have Eyes For You Cover - таба, видео

Печатать
Просмотров: 78
-------------------------------------------------------------------------------
                             I only have eyes for you (cover) - Tashaki Miyaki
-------------------------------------------------------------------------------
Tabbed by:jordan.nakach
E-mail:jordan.nakach@gmail.com

This is a cover of the song "I only have eyes for you" by Flamingos performed by Tashaki Miyaki.

*For the parts with Lyrics in parentheses, play the first 6 notes of the melody, as 
indicated. *

Intro:

Bb7, Em  D,

Melody
E|-----------------------------------------------------|
B|--------------13------------------15-----------------|
G|---------9-12----12-9-------10-14----14-10-----------|    (x11)
D|-----10-----------------\12--------------------------|
A|-----------------------------------------------------|
E|-----------------------------------------------------|

       1st 6 notes of melody     C      C7
(I don't know if it's cloudy or) bright.

  Fmaj7              Am7  Ab7
I only have eyes for you, dear


Melody
E|-----------------------------------------------------|
B|--------------13------------------15-----------------|
G|---------9-12----12-9-------10-14----14-10-----------|    (x3)
D|-----10-----------------\12--------------------------|
A|-----------------------------------------------------|
E|-----------------------------------------------------|


      1st 6 notes of Melody      C   C7
(But I can't see a thing in the) sky.

  Fmaj7               D7
I only have eyes for, you Ooh.


                         *(notes between Fmaj7 & F7)
                             |0-5-1----------1|
                             |1-----1--------1|
                             |2-------2---2--2|
                             |3---------3----1|
                             |---------------3|
                             |----------------|
Gm7        C                 *Fmaj7  F7
   I don't know if we're in a garden,

                    *( notes between F & Db9)
                          |1--5--1--|
                          |1-------4|
                          |2-------4|
                          |3-------3|
                          |3-------4|
                          |1--------|
Bbmaj7        Bbm7        *F   Db9
      Or on a crowded aven-ue.

Melody
E|-----------------------------------------------------|
B|--------------13------------------15-----------------|
G|---------9-12----12-9-------10-14----14-10-----------|    (x3)
D|-----10-----------------\12--------------------------|
A|-----------------------------------------------------|
E|-----------------------------------------------------|

   1st 6 notes of melody    C     C7
(Maybe millions of people), go by.


        Fmaj7                 D7
But they all disappear, from view.

      Gm7            C
And I only have eyes,  ......for you...

Melody
E|----------------------------------------|
B|--------------13------------------15----|
G|---------9-12----12-9-------10-14----14-|   (x2)
D|-----10-----------------\12-------------|
A|----------------------------------------|
E|----------------------------------------|

 (Let ring)
E|-0----|
B|-8----|
G|-9----|
D|-10---|
A|------|
E|------|
Добавлено: 30.12.2015
Другие материалы по этой песне:
  • Аккорды и текст

Страница создана 30.12.2015
http://primanota.ru/tashaki-miyaki/i-only-have-eyes-for-you-cover-chords.htm
Привет, Гость.
Предлагаем пройти революционный курс по гитаре.
Подарок от PrimaNota.Ru, забирай!