PrimaNota.ru - самый крупный в мире бесплатный архив песенных текстов, аккордов, табулатур и нот


Tarrus Riley - Superman - бас-таба, видео

Регистрация Запомнить меня
Войти через:  Facebook Google Twitter Vk Yandex Mail.ru

Tarrus Riley - Superman - бас-таба, видео

Печатать
Просмотров: 55
Уроки эстрадного вокала в Санкт-Петербурге
Superman - Tarrus Riley


G -----------------------------------------------------|
D ---3---2---0-------------------0---------------------|
A ----------------2--2--2----3-----------0-3-3---3-----|
E -----------------------------------1---------1-------|

G -----------------------------------------------------|
D ---3---2---0-----------------------------------------|
A ----------------2--2--2----0---2---3-----------------|
E ----------------------------------------1-1---1---1--|

There are minor improvisations on some of the later verses, but this is the main tune

Made by BLUE
Добавлено: 13.12.2015
Другие материалы по этой песне:
  • Аккорды и текст

Страница создана 13.12.2015
http://primanota.ru/tarrus-riley/superman-chords.htm
Привет, Гость.
Предлагаем пройти революционный курс по гитаре.
Подарок от PrimaNota.Ru, забирай!