PrimaNota.ru - самый крупный в мире бесплатный архив песенных текстов, аккордов, табулатур и нот


Tarja Turunen - Crimson Deep - текст песни, бас-таба, видео

Регистрация Запомнить меня
Войти через:  Facebook Google Twitter Vk Yandex Mail.ru

Tarja Turunen - Crimson Deep - текст песни, бас-таба, видео

Печатать
Просмотров: 250
Song: Crimson Deep
 Band: Tarja Turunen
 Album: What Lies Beneath
 Bassist: Doug Wimbish
 Composer: Tarja Turunen, Anders Wollbeck e Matthias Lindblom
 Tabbed by: FLBatista
 Tunning: B Tuning (B E A D G)


 BASS INTRO:

 G|-----------------------------------------------------------|
 D|-----------------------------------------------------------|
 A|-5\---------------------------3----------------------------|
 E|--------------------------3h5-------------------------6-5--|
 B|-----3--3-3-3--3-3--3-3-----------3--3-3-3--3-3--3-3-------|

 G|-------------------------------------------------------|
 D|-------------------------------------------------------|
 A|-------------------------3--------------------------3--|
 E|---------------------3h5------------------------5p3----|
 B|-3--3-3-3--3-3--3-3---------3--3-3-3--3-3--3-3---------|


 BAND INTRO 1:

 G|-----------------------------------------------------|
 D|-----------------------------------------------------|
 A|-------------------------3---------------------------|
 E|---------------------3h5------------------------6-5--|
 B|-3--3-3-3--3-3--3-3---------3--3-3-3--3-3--3-3-------|

 G|-------------------------------------------------------|
 D|-------------------------------------------------------|
 A|-------------------------3--------------------------3--|
 E|---------------------3h5------------------------5h3----|
 B|-3--3-3-3--3-3--3-3---------3--3-3-3--3-3--3-3---------|

 G|-----------------------------------------------------|
 D|-----------------------------------------------------|
 A|-------------------------3---------------------------|
 E|---------------------3h5------------------------6-5--|
 B|-3--3-3-3--3-3--3-3---------3--3-3-3--3-3--3-3-------|

 G|--------------------------------------------------------|
 D|--------------------------------------------------------|
 A|-------------------------3h5----------------------------|
 E|---------------------3h5-------------------------5h3-5--|
 B|-3--3-3-3--3-3--3-3----------3--3-3-3--3-3--3-3---------|


 BAND INTRO 2:

 G|------------------------------------------------------------------------------------|
 D|------------------------------------------------------------------------------------|
 A|-------------------------3------------------------------------------------------3h5-|
 E|-6--6-6-6--6-6--6-6--3h5----5--5-5-5--5-5--5-5--5h6-5---3--3-3-3--3-3--3-3--3h5-----|
 B|------------------------------------------------------6-----------------------------|

 G|------------------------------------|
 D|------------------------------------|
 A|------------------------------------|
 E|------------------------------------|
 B|-3--3-3-3--3-3--3-3--3-3-3-3-3-3-3~-|


 VERSE 1:

 G|------------------------------------------------------------|
 D|------------------------------------------------------------|
 A|------------------------------------------------------------|
 E|-------------------------------6~---------------------------|
 B|-3~------------3~------3~------------------4----2----3------|

 G|--------------------------------------------------------------------|
 D|--------------------------------------------------------------------|
 A|-5\---------1-1-1---3---3/5-3---1-1-1----5\-------------------------|
 E|--------------------------------------------------------------------|
 B|-----3(64X)-----------------------------------4----2----3-----3(8x)-|


 CHORUS:

 G|----------------------|x3
 D|----------------------|
 A|----------------------|
 E|------3----1----5(8x)-|
 B|-3--------------------|

 G|----------------------------------------|
 D|----------------------------------------|
 A|-------------------------------------3--|
 E|------5~---------5~----------5---3h5----|
 B|-4~---------4~---------4~---------------|


MAIN RIFF 2:

 G|-----------------------------------------------------|
 D|-----------------------------------------------------|
 A|-------------------------3---------------------------|
 E|---------------------3h5------------------------6-5--|
 B|-3--3-3-3--3-3--3-3---------3--3-3-3--3-3--3-3-------|

 G|--------------------------------------------------------|
 D|--------------------------------------------------------|
 A|-------------------------3h5-------------------------3--|
 E|---------------------3h5-------------------------5h3----|
 B|-3--3-3-3--3-3--3-3----------3--3-3-3--3-3--3-3---------|


 VERSE 2:

 G|-------------------------------------------------------------|
 D|-------------------------------------------------------------|
 A|--------1-1-1---3---3/5-3---1-1-1----------------------------|
 E|-------------------------------------------------------------|
 B|-3(64X)--------------------------------4----2----3-----3(8x)-|


 CHORUS 2:

 G|----------------------|x3
 D|----------------------|
 A|----------------------|
 E|------3----1----5(8x)-|
 B|-3--------------------|

 G|-----------------------------------------------------|
 D|-----------------------------------------------------|
 A|-----------------------------------------------------|
 E|------5~---------5~---------5------------------------|
 B|-4~---------4~---------4~------------3~------3~------|


 INTERLUDE:


 G|-----------------------------------------------------------|
 D|-----------------------------------------------------------|
 A|-1------1---1--0-----------------------------------------1-|
 E|-----1-------------3------3---3--1-------------------1-3---|
 B|-----------------------3-------------4---4--4---4--4-------|

 G|----------------------------------------------------------------------|
 D|----------------------------------------------------------------------|
 A|-3-------------------------------------3-1----------------------------|
 E|-----3---------------3-4------4---4--4-----4-3---3--3-3-1---1--1-1----|
 B|--------1---1--1-3-4-------4---------------------------------------4~-|


 DARK RIFF (2x):

 G|--------------------------------|
 D|--------------------------------|
 A|-3~-----------------------------|
 E|--------2~------------5---5(6X)-|
 B|---------------4~---------------|


 FINAL CHORUS:

 G|----------------------|x4
 D|----------------------|
 A|----------------------|
 E|------3----1----5(8x)-|
 B|-3--------------------|


 FINAL (x4):

 G|--------------------------------------------------------|
 D|--------------------------------------------------------|
 A|-------------------------3------------------------------|
 E|-6--6-6-6--6-6--6-6--3h5----5--5-5-5--5-5--5-5--5h6-5---|
 B|------------------------------------------------------6-|

 G|---------------------------------------------------------|
 D|---------------------------------------------------------|
 A|-------------------------3h5---------------------5-------|
 E|-3--3-3-3--3-3--3-3--3h5---------------------------5-3-5-|
 B|-----------------------------3--3-3-3--3-3--3-3----------|


 G-----|
 D-----|
 A-----|
 E-----|
 B-3~--|


 LEG:

 / : Slide Up
 \ : Slide Down
 h : Hammer On
 p : Pull Off
 ~ : Let Ring
Добавлено: 23.10.2013
Другие материалы по этой песне:
  • Аккорды и текст

Страница создана 23.10.2013
http://primanota.ru/tarja-turunen/crimson-deep-chords.htm
Привет, Гость.
Предлагаем пройти революционный курс по гитаре.
Подарок от PrimaNota.Ru, забирай!