PrimaNota.ru - самый крупный в мире бесплатный архив песенных текстов, аккордов, табулатур и нот


Tardigrade - Solace - таба, видео

Регистрация Запомнить меня
Войти через:  Facebook Google Twitter Vk Yandex Mail.ru

Tardigrade - Solace - таба, видео

Печатать
Просмотров: 88
-------------------------------------------------------------------------------
                             SONG NAME - Band Name
-------------------------------------------------------------------------------
Tabbed by: Danny Nocito
E-mail: apexdebaby@gmail.com

https://www.facebook.com/tardigradepcb

Tuning: BF#BEG#C#

Verse
B |--------------------------------|
G#|--------------------------------|
E |-------0-------------0h2p0---0--|
B |------4-------4---4--------4----|
F#|-----2--------------------------|
C#|0---0-----3-----3---------------|

Chorus
B |----------------------|----------------------|0-------------------------------|
G#|----------------------|----------------------|1-------------------------------|
E |7/9-9-9-7/9-9-9-910-9-|7/9-9-9-7/9-9-9-910-9-|0-------------------------------|
B |x-x-x-x-x-x-x-x-x-x-x-|x-x-x-x-x-x-x-x-x-x-x-|2-------------------------------|
F#|5/7-7-7-5/7-7-7-7/8-7-|5/7-7-7-5/7-7-7-7/8-7-|3-------------------------------|
C#|0-0-0-0-0-0-0-0-0-0-0-|0-0-0-0-0-0-0-0-0-0-0-|--------------------------------|

Bridge (Old) 
B |0-------0------0-------0--------|
G#|1-------0------0-------3--------|
E |2-------0------0-------2--------|
B |2-------2------0-------0--------|
F#|0-------2------2-------0--------|
C#|--------0------3-------2--------|


Bridge (New) 
B |--------------------------------|--------------------------------|
G#|--------------------------------|--------------------------------|
E |--------------------------------|--------------------------------|
B |--------------------------------|--------------------------------|
F#|--------------------------------|3-3-3-3-3-3-3-3-3-3-3-3-3-7-7-7-|
C#|5-5-5-5-5-5-5-5-5-5-5-5-5-3-3-3-|--------------------------------|


B |--------------------------------|--------------------------------|
G#|--------------------------------|--------------------------------|
E |--------------------------------|--------------------------------|
B |--------------------------------|--------------------------------|
F#|--------------------------------|5-5-5-5-5-5-5-5-5-3-3-3-5-3-3-3-|
C#|3-3-3-3-3-3-3-3-3-3-3-3-3-3-3-3-|--------------------------------|


************************************

| /   slide up
| \   slide down
| h   hammer-on
| p   pull-off
| ~   vibrato
| +   harmonic
| x   Mute note
| b   Bend
| pb  Pre-bend
| br  Bend release
| pbr Pre-bend release
| brb Bend release bend

************************************
Добавлено: 09.05.2015
Вам также может быть интересно:
Другие материалы по этой песне:
  • Аккорды и текст

Страница создана 09.05.2015
http://primanota.ru/tardigrade/solace-chords.htm
Привет, Гость.
Предлагаем пройти революционный курс по гитаре.
Подарок от PrimaNota.Ru, забирай!