PrimaNota.ru - самый крупный в мире бесплатный архив песенных текстов, аккордов, табулатур и нот


Tardigrade - Seven - таба, видео

Регистрация Запомнить меня
Войти через:  Facebook Google Twitter Vk Yandex Mail.ru

Tardigrade - Seven - таба, видео

Печатать
Просмотров: 118
-------------------------------------------------------------------------------
                             SONG NAME - Band Name
-------------------------------------------------------------------------------
Tabbed by: Danny Nocito
E-mail: apexdebaby@gmail.com

https://www.facebook.com/tardigradepcb

Tuning: BF#BEG#C#

Intro (Clean)
C#|-------------------------------|
G#|-------------------------------|
E |-------------------------------|
B |-------------------------------|
F#|-------------------------------|
B |9h10-x-9-x-9h10-x-9-x-9h10-x-7-|

Intro (Distorted)
C#|--------------------------|
G#|--------------------------|
E |--------------------------|
B |2h3-x-2-x-2h3-x-2-x-2h3-0-|
F#|2h3-x-2-x-2h3-x-2-x-2h3-0-|
B |2h3-x-2-x-2h3-x-2-x-2h3-0-|

Verse
C#|-----------------------------------|-----------------------------------|
G#|-----------------------------------|-----------------------------------|
E |-----------------------------------|-----------------------------------|
B |11--11111111-11--11111111-11--1111-||11--11111111-11--11111111-11--1111|
F#|-9---9-9-9-9--9---9-9-9-9--9---9-9-|-9---9-9-9-9--9---9-9-9-9--9---9-9-|
B |10p9-9-9-9-9-10p9-9-9-9-9-10p9-9-9-|10p9-9-9-9-9-10p9-9-9-9-9-10p9-9-9-|
 

C#|-----------------------------------|--------------------------|
G#|-----------------------------------|--------------------------|
E |-----------------------------------|--------------------------|
B |11--11111111-11--11111111-11--1111-|-7-7---7---7-7----7-7-7-7-|
F#|-9---9-9-9-9--9---9-9-9-9--9---9-9-|-7-7---7---7-7----7-7-7-7-|
B |10p9-9-9-9-9-10p9-9-9-9-9-10p9-9-9-|-7-7---7---7-7----7-7-7-7-|

(Pre-Chorus) (Clean/Tremolo/Delay)
C#|--------------------|--------------------|--------------------|--------------------|
G#|3-------------------|3-------------------|2-------------------|--------------------|
E |0-------------------|0-------------------|0-------------------|--------------------|
B |4-------------------|4-------------------|4-------------------|--------------------|
F#|x-------------------|x-------------------|4-------------------|--------------------|
B |5-------------------|2-------------------|4-------------------|--------------------|

(Chorus)
C#|--------------------|--------------------|--------------------|--------------------|
G#|--------------------|--------------------|--------------------|--------------------|
E |--------------------|----------1111111111|--------7-7-7-7-7-7-|7/8\7---------------|
B |2-2-2-2-2-2-2-2-2-2-|2-2-2-2-2-1212121212|0-0-0-0-7-7-7-7-7-7-|--------------------|
F#|2-2-2-2-2-2-2-2-2-2-|2-2-2-2-2-1010101010|0-0-0-0-5-5-5-5-5-5-|5/6\5-0-0-0-0-0-0-0-|
B |2-2-2-2-2-2-2-2-2-2-|2-2-2-2-2-----------|0-0-0-0-0-0-0-0-0-0-|0-0-0-0-0-0-0-0-0-0-|
   1    2    3    4     1    2    3    4     1    2    3    4     1    2    3    4

C#|--------------------|--------------------|--------------------|------------------------|
G#|--------------------|--------------------|--------------------|------------------------|
E |--------------------|----------1111111111|--------------------|------------------------|
B |2-2-2-2-2-2-2-2-2-2-|2-2-2-2-2-1212121212|0-0-0-0-0-0-0-0-0-0-|2-3--3--2-0-2-3--3--2-0-|
F#|2-2-2-2-2-2-2-2-2-2-|2-2-2-2-2-1010101010|0-0-0-0-0-0-0-0-0-0-|2-3--3--2-0-2-3--3--2-0-|
B |2-2-2-2-2-2-2-2-2-2-|2-2-2-2-2-----------|0-0-0-0-0-0-0-0-0-0-|2-3--3--2-0-2-3--3--2-0-|

Breakdown (Clean-ish)
C#|-------------------------------|
G#|-------------------------------|
E |-------------------------------|
B |-------------------------------|
F#|-------------------------------|
B |9h10-x-9-x-9h10-x-9-x-9h10-x-7-|


Breakdown 
C#|--------------------------|
G#|--------------------------|
E |--------------------------|
B |2h3-x-3-x-2h3-x-3-x-2h3-0-|
F#|2h3-x-3-x-2h3-x-3-x-2h3-0-|
B |2h3-x-3-x-2h3-x-3-x-2h3-0-|

Intro
Verse
Pre-Chorus
Chorus
Verse
Pre-Chorus
Chorus
Breakdown
Chorus

************************************

| /   slide up
| \   slide down
| h   hammer-on
| p   pull-off
| ~   vibrato
| +   harmonic
| x   Mute note
| b   Bend
| pb  Pre-bend
| br  Bend release
| pbr Pre-bend release
| brb Bend release bend

************************************
Добавлено: 09.05.2015
Вам также может быть интересно:
Другие материалы по этой песне:
  • Аккорды и текст

Страница создана 09.05.2015
http://primanota.ru/tardigrade/seven-chords.htm
Привет, Гость.
Предлагаем пройти революционный курс по гитаре.
Подарок от PrimaNota.Ru, забирай!