PrimaNota.ru - самый крупный в мире бесплатный архив песенных текстов, аккордов, табулатур и нот


Taranproject - È Natali - таба, видео

Регистрация Запомнить меня
Войти через:  Facebook Google Twitter Vk Yandex Mail.ru

Taranproject - È Natali - таба, видео

Печатать
Просмотров: 62
-------------------------------------------------------------------------------
                             È natali - Taranproject
-------------------------------------------------------------------------------
Tabbed by: Simone Modaffari


Tuning: EADGBE
Intro:
    Em                Em
e|---------------------0------------------------5(harm)-----------------------------|
B|-------------------0---0----------------------5(harm)-----------------------------|
G|--------0--------0-------0--------0-----------5(harm)-----------------------------|
D|------2---2---------------------2---2------------------------------------------|
A|----2------2------------------2-------2----------------------------------------|
E|--0------------0------------0-------------------------------------------------|
 
Verse:
      Em               B7             Am          Em
e|----------------------2-------------0-----------0------------------------------|
B|----------------------0-------------1---------0---0----------------------------|
G|-------0------------2---2---------2---2-----0-------0--------------------------|
D|-----2---2--------1-------1-----2------2---------------------------------------|
A|---2-------2----2-------------0------------------------------------------------|
E|-0----------------------------------------0------------------------------------|


       Dm          G               B7              Em
e|-------1--------3--------3-------2-----2----------------------------0----------|
B|-----3---3------3--------3---------0-----0------------------------0---0--------|
G|---2-------2----0----0---0----0------2-----2---------0----------0-------0------|
D|-0-------------------------------------------------2---2-----------------------|
A|---------------------------------2---------------2-------2---------------------|
E|----------------3--------3---------------------0--------------0----------------|




Play the intro (Fingerstyle).



Verse 1 (Fingerstyle) play it twice:
Em                B7             Am                 Em
Bambineju, bambineju, chi si' duci e chi si' beiu,
Dm                   G            B7           Em         Em
Chija notti chi nescisti, chiju friddu chi patisti.
Em                 B7           Am           Em
La Madonna ti 'mpasciava, San Giuseppi ti cantava,
Dm               G            B7       Em         Em
Ti cantava 'a litania cu Sant'anna e cu Maria.


Chorus: (strumming)

Em            Am            Dm               G
E' Natali è Natali, è nu jornu chi mi piaci,
Am               Em           B7                    Em
Eu stasira volarrìa tutti quanti 'u fannu paci.
Em              Am                 Dm               G
E li luci 'nta la piazza chi 'ndi dannu la ricchizza,
Am             Em           B7                  Em
Esti a notti di Natali, 'ndi cogghjimu pe' ballari.

Verse 2 (Fingerstyle) play it once:

Em               B7          Am            Em
'Nta la notti di Natali, quand'è natu lu Messia
Dm                 G             B7           Em
Tutti l'angiuli calàru mu 'nci fannu cumpagnia.


Chorus: (strumming)

Em            Am            Dm               G
E' Natali è Natali, è nu jornu chi mi piaci,
Am               Em           B7                    Em
Eu stasira volarrìa tutti quanti 'u fannu paci.
Em              Am                 Dm               G
E li luci 'nta la piazza chi 'ndi dannu la ricchizza,
Am             Em           B7                  Em
Esti a notti di Natali, 'ndi cogghjimu pe' ballari.



After this part of the song there is a mandolin that plays until the end. You can emulate it
playing the G chord with barrè at the 10th fret, the D chord with barrè at 10th fret, the A chord with barrè 
at the 9th fret and the E chord with barrè at 9th fret. 

G     D      G       D  (x2)

G                    D
E Bambineju balla balla
D                    G
Ca ti sonu cu la chitarra
G                    D
Ca ti sonu cu u mandolinu
D                  G
Bambineju malandrinu
G                    D
Ca ti sonu cu u mandolinu
D                  G
Bambineju malandrinu
G                    D
E Bambineju balla balla
D                    G
ca lu chianu è tuttu lu to';
G                    D
unni posi lu to' piruzzu,
D                    G
nasci gigli e basilicò.
G                    D
unni posi lu to' piruzzu,

D                   G
nasci gigli e basilicò.

D   E   A   (strum once each chord)

A                    E
E Bambineju balla balla
E                    A
Ca ti sonu cu la chitarra
A                    E
Ca ti sonu cu u mandolinu
E                   A
Bambineju malandrinu
A                   E
Ca ti sonu cu u mandolinu
E                   A
Bambineju malandrinu
A                   E
E Bambineju balla balla
E                   A
ca lu chianu è tuttu lu to';
A                   E
unni posi lu to' piruzzu,
E                   A
nasci gigli e basilicò.
A                   E
unni posi lu to' piruzzu,
E                   A
nasci gigli e basilicò.
  



I know that this tab doesn't sound exactly, because my ear isn't good enough to recognize the 
right 
notes, but it sounds well. I saw that there weren't tab for this song so I made it.
I hope you enjoy it.
Добавлено: 08.06.2016
Другие материалы по этой песне:
  • Аккорды и текст

Страница создана 08.06.2016
http://primanota.ru/taranproject/e-natali-chords.htm
Привет, Гость.
Предлагаем пройти революционный курс по гитаре.
Подарок от PrimaNota.Ru, забирай!