PrimaNota.ru - самый крупный в мире бесплатный архив песенных текстов, аккордов, табулатур и нот


Taproot - Path Less Taken - текст песни, таба, видео

Регистрация Запомнить меня
Войти через:  Facebook Google Twitter Vk Yandex Mail.ru

Taproot - Path Less Taken - текст песни, таба, видео

Печатать
Просмотров: 105
-------------------------------------------------------------------------------
			     Path Less Taken - Taproot
-------------------------------------------------------------------------------
Tabbed by: freakboy
Email: surfpark71@hotmail.com

Tuning: Drop C (C, G, C, F, A, D)

One of my favourite Taproot songs!
Hope it helps..

Intro (Dist)

D|---------------------------------------------------------------------------|
A|---------------------------------------------------------------------------|
F|---------------------------------------------------------------------------|
C|--------------------------------3-3--1-3--1--3-3--1-3--1--3-3--1-3--1------|
G|--------------------------------3-3--1-3--1--3-3--1-3--1--3-3--1-3--1------|
C|--13p0-13p0-13p0-10p0-10p0-10p0-3-3--1-3--1--3-3--1-3--1--3-3--1-3--1------|

Verse (Clean)

D|-------------------------------------------------------------------------------|
A|-------------------------------------------------------------------------------|
F|--14--15--17--19--23--15--12--11--12-12/14--15--17--19--11--12-----------------|
C|-------------------------------------------------------------------------------|
G|--12--13--15--17--21--13--10--9---10-10/12--13--15--17--9---10--(Dist)---------|
C|----------------------------------------------------------------10p0-10p0-10p0-|

Pre-Chorus
D|---------------------------------------------------------------------------|
A|---------------------------------------------------------------------------|
F|---------------------------------------------------------------------------|
C|--3-3--1-3--1--------------------------------------------------------------|
G|--3-3--1-3--1--(3 times)---------------------------------------------------|
C|--3-3--1-3--1--------------------------------------------------------------|
(*for the 2nd pre-chorus, play this once)

Chorus (Dist)
D|---------------------------------------------------------------------------|
A|---------------------------------------------------------------------------|
F|---------------------5-----5/7\5---------------------5-----5/7\5-----------|
C|--1--3--5-5-5-----1--x--5--x-x-x--3--4--5-5-5-----1--x--5--x-x-x--3--4-----|
G|--1--3--5-5-5-----1--3--5--3/5\3--3--4--5-5-5-----1--3--5--3/5\3--3--4-----|
C|--1--3--5-5-5--0--1-----5---------3--4--5-5-5--0--1-----5---------3--4-----|

Bridge

D|---------------------------------------------------------------------------|
A|---------------------------------------------------------------------------|
F|---------------------------------------------------------------------------|
C|---------------------------------------------------------------------------|
G|---------------------------------------------------------------------------|
C|--12-0-0-12-0-0-13p0-13p0-13p0-10p0-10p0-10p0------------------------------|


D|---------------------------------------------------------------------------|
A|---------------------------------------------------------------------------|
F|-------------------------------------------------------------5/7\5---------|
C|--5-5-3h5-----------5-5-3h5--5-5-3h5--5-5-3h5-5-6------------x-x-x---------|
G|--5-5-3h5 (2 times)-5-5-3h5--5-5-3h5--5-5-3h5-5-6 (4 times)--3/5\3---------|
C|--5-5-3h5-----------5-5-3h5--5-5-3h5--5-5-3h5-5-6--------------------------|

Ending

D|---------------------------------------------------------------------------|
A|---------------------------------------------------------------------------|
F|---------------------------------------------------------------------------|
C|--5-5-3h5--5-5-3h5--5-5-3h5-5-6--------------------------------------------|
G|--5-5-3h5--5-5-3h5--5-5-3h5-5-6-(4 times)----------------------------------|
C|--5-5-3h5--5-5-3h5--5-5-3h5-5-6------------10p0-10p0-0-17+-----------------|



************************************

| /   slide up
| \   slide down
| h   hammer-on
| p   pull-off
| ~   vibrato
| +   harmonic
| x   Mute note
| b   Bend
| pb  Pre-bend
| br  Bend release
| pbr Pre-bend release
| brb Bend release bend

************************************
Добавлено: 06.12.2013
Другие материалы по этой песне:
  • Аккорды и текст

Страница создана 07.09.2013
http://primanota.ru/taproot/path-less-taken-chords.htm
Привет, Гость.
Предлагаем пройти революционный курс по гитаре.
Подарок от PrimaNota.Ru, забирай!