PrimaNota.ru - самый крупный в мире бесплатный архив песенных текстов, аккордов, табулатур и нот


Taproot - Birthday - текст песни, таба, бас-таба, видео

Регистрация Запомнить меня
Войти через:  Facebook Google Twitter Vk Yandex Mail.ru

Taproot - Birthday - текст песни, таба, бас-таба, видео

Печатать
Просмотров: 106
This whole song is in drop d tuning,i dont know what people are thinking...


e|---10-----10----10----|
B|-10--10-10---10---10--|
G|----------------------|
D|----------------------|
A|----------------------|
D|----------------------|

e|---13-----13----13----|
B|-13--13-13---13---13--|
G|----------------------|
D|----------------------|
A|----------------------|
D|----------------------|

e|---15-----15----15----|
B|-13--13-13---13---13--|
G|----------------------|
D|----------------------|
A|----------------------|
D|----------------------|

Verse:
e[-----------------------------------------------------------------------]
b[-------------------------------------------*---------------------------]
g[-------------------------------------------*-x44x/555------------------]
d[-----555555555\2222-99999------------------*-x44x/555------------------]
a[-----555555555\2222-99999------------------*-x22x/333------------------]
d[-----555555555\2222-99999------------------*--at the end of 4th measure]


e[-------------------------------------------------------------------------]
b[-------------------------------------------------------------------------]
g[--------------------------------x44x/-555--------------------------------]
d[--------------------------------x44x/-555--------------------------------]
a[------22222-xx0h222-xx222-xx222-x22x/-333--------------------------------]
d[------22222-xx0h222-xx222-xx222------------------------------------------]

e[---12------12-----12--12--12/----15------15--15--/-----17------17---17--]
b[-10--10-10---10-10--10--10-10/--13--13-13--13---13/--15---15-15---15-15-]
g[------------------------------------------------------------------------]
d[------------------------------------------------------------------------]
a[------------------------------------------------------------------------]
d[------------------------------------------------------------------------]

d[------------------------------------------------------------------------]
a[------------------------------------------------------------------------]
f[------9-------/11----/12-----\11-------9-------7------------------------]
c[------------------------------------------------------------------------]
g[------7-------/-9----/10-----\-9-------7-------5------------------------]
c[------------------------------------------------------------------------]

d[------------------------------------------------------------------------]
a[-------------------------------------------*----------------------------]
f[-----9/11-11/12-12/14-14\12-12\11-11/12----*-16161616/1919191919--------]
c[-------------------------------------------*----------------------------]
g[-----7/9-9/10-10/12-12-\10-10\9-9/10-------*-14141414/1717171717--------]
c[----------------------------------------------at the end of 4th measure-]

d[-----------------------------------------------------------------------]
a[-------------------------------------------*---------------------------]
f[-------------------------------------------*-x44x/555------------------]
c[-----555555555\2222-99999------------------*-x44x/555------------------]
g[-----555555555\2222-99999------------------*-x22x/333------------------]
c[-----555555555\2222-99999------------------*--at the end of 4th measure]

d[-------------------------------------------------------------------------]
a[-------------------------------------------------------------------------]
f[-----------161616------171717------191919------141414--------------------]
c[------2222--------2222--------2222--------2222----------2x---------------]
g[------2222-141414-2222-151515-2222-171717-2222-121212--------------------]
c[------2222--------2222--------2222--------2222---------------------------]

d[-------------------------------------------------------------------------]
a[-------------------------------------------------------------------------]
f[-----------161616------171717------191919------x44/555-------------------]
c[------2222-141414-2222-151515-2222-171717-2222-x44/555-------------------]
g[------2222-141414-2222-151515-2222-171717-2222-x22/333-------------------]
c[------2222-141414-2222-151515-2222-171717-2222---------------------------]

d[-------------------------------------------------------------------------]
a[-------------------------------------------------------------------------]
f[----------5555/---7777-/-----999-9--9------------------------------------]
c[---------5555-/---7777-/-----999--9--9----2--2---------------------------]
g[------333333--/--5555--/--7777------------2~-2---------------------------]
c[------------------------------------------2~-2---------------------------]
* clean
Verse:
d[-----------------------------------------------------------------------]
a[-------------------------------------------*---------------------------]
f[-------------------------------------------*-x44x/555------------------]
c[-----555555555\2222-99999------------------*-x44x/555------------------]
g[-----555555555\2222-99999------------------*-x22x/333------------------]
c[-----555555555\2222-99999------------------*--at the end of 4th measure]

d[-----------------------------------------------------------------------]
a[-----------------------------------------------------------------------]
f[-----------------------------------------------------------------------]
c[-----55-555555\2222-44444----------------------------------------------]
g[-----55-555555\2222-44444----------------------------------------------]
c[-----55-555555\2222-22222----------------------------------------------]
clean at the end

Добавлено: 02.06.2013
Другие материалы по этой песне:
  • Аккорды и текст

Страница создана 03.04.2012
http://primanota.ru/taproot/birthday-chords.htm
Привет, Гость.
Предлагаем пройти революционный курс по гитаре.
Подарок от PrimaNota.Ru, забирай!