PrimaNota.ru - самый крупный в мире бесплатный архив песенных текстов, аккордов, табулатур и нот


Tapes N Tapes - Hidee Ho - таба, видео

Регистрация Запомнить меня
Войти через:  Facebook Google Twitter Vk Yandex Mail.ru

Tapes N Tapes - Hidee Ho - таба, видео

Печатать
Просмотров: 45
Tapes 'n Tapes
"Hidee Ho"
Outside (2011)

Tuning - Standard (EADGBe)

Intro: --clean, lots of reverb--
(0:00-2:42)
|-9~~---9//|-12~~----12\\|-5~~-----7--|-5--------7-5--|
|----------|-------------|------------|---------------|_
|-9~~---9//|-12~~----12\\|-7~~-----7--|-7--------7-7--| \ 
|----------|-------------|------------|---------------|  \
|----------|-------------|------------|---------------|   |
|----------|-------------|------------|---------------|   |
                                                       (x2)
|-9~~---9//|-12~~----12\\|-5~~--------|------5---7-5--|   |
|----------|-------------|------------|---------------|   |
|-9~~---9//|-12~~----12\\|-7~~--------|------7---7-7--|  /
|----------|-------------|------------|---------------|_/
|----------|-------------|------------|---------------|
|----------|-------------|------------|---------------|

|-9--9--9//|-12--12--12//|-15-14~~----|-15-14---15-14\|
|----------|-------------|------------|---------------|
|-9--9--9//|-12--12--12//|-14-14~~----|-14-14---14-14\|
|----------|-------------|------------|---------------|
|----------|-------------|------------|---------------|
|----------|-------------|------------|---------------|

|-9~~---9//|-12~~----12//|-15-14~~----|-15-14---15-14\|
|----------|-------------|------------|---------------|
|-9~~---9//|-12~~----12//|-14-14~~----|-14-14---14-14\|(x2)
|----------|-------------|------------|---------------|
|----------|-------------|------------|---------------|
|----------|-------------|------------|---------------|

|-9~~---9//|-12~~----12\\|-5~~--------|------5---7-5--|
|----------|-------------|------------|---------------|
|-9~~---9//|-12~~----12\\|-7~~--------|------7---7-7--|
|----------|-------------|------------|---------------|
|----------|-------------|------------|---------------|
|----------|-------------|------------|---------------|


Verse is the same as the intro, so just repeat two more times, except
      on the third time change the last two bars to this:
(2:43-2:46)
|----15----15----15----14----|-15----15----15----14----14-|
|----------------------------|----------------------------|
|-14----14----14----14---14--|----14----14----14----14----|
|----------------------------|----------------------------|
|----------------------------|----------------------------|
|----------------------------|----------------------------|


Break: --heavily distorted guitar--
(2:46-4:05)
|------------|------------|-------------|-------------|
|------------|------------|-------------|-------------|
|------------|------------|-------------|-------------|(x3)
|-7~~~~~~~~~-|(7)~~~~~~~~-|(7)~~~~~~~~~-|(7)~~~~~~~~~-|
|------------|------------|-------------|-------------|
|-5~~~~~~~~~-|(5)~~~~~~~~-|(5)~~~~~~~~~-|(5)~~~~~~~~~-|

|------------|------------|-------------|-------------|
|------------|------------|-------------|-------------|
|------------|------------|-------------|-------------|
|-7~~~~~~~~~-|(7)~~~~~~~~-|-7---7---7---|-7---7---7---|
|------------|------------|-------------|-------------|
|-5~~~~~~~~~-|(5)~~~~~~~~-|-5---5---5---|-5---5---5---|

|------------|------------|-------------|-------------|
|------------|------------|-------------|-------------|
|------------|------------|----12/\/\/\/|----12/\/\\\\|(x3)
|-7---7---7--|-11--11--11-|-14----------|-14----------|
|------------|------------|-------------|-------------|
|-5---5---5--|-9---9---9--|-12----------|-12----------|

|------------|------------|
|------------|------------|
|------------|------------|
|-7---7---7--|-11--11--11-|
|------------|------------|
|-5---5---5--|-9---9---9--|

|----------------------------|----------------------------|
|----------------------------|----------------------------|
|----------12b12b12b---------|-12b12b12b---------12/\/\\\\|
|-14-14-14----------14-14-14-|----------14-14-14----------|
|----------------------------|----------------------------|
|-12-12-12----------12-12-12-|----------12-12-12----------|

|------------|------------|-------------|-------------|
|------------|------------|-------------|-------------|
|------------|------------|----12/\/\/\/|----12/\/\\\\|(x3)
|-7---7---7--|-11--11--11-|-14----------|-14----------|
|------------|------------|-------------|-------------|
|-5---5---5--|-9---9---9--|-12----------|-12----------|

|------------|------------|
|------------|------------|
|------------|------------|
|-7---7---7--|-11--11--11-|
|------------|------------|
|-5---5---5--|-9---9---9--|

|----------------------------|----------------------------|
|----------------------------|----------------------------|
|----------12b12b12b---------|-12b12b12b---------12/\/\\\\|
|-14-14-14----------14-14-14-|----------14-14-14----------|
|----------------------------|----------------------------|
|-12-12-12----------12-12-12-|----------12-12-12----------|


Outro: --both guitars--
(4:05-4:44)
|-9~~-----9//|-12~----12\\|-5~~------7--|-5--------7-5--|
|------------|------------|-------------|---------------|
|-9~~-----9//|-12~~---12\\|-7~~------7--|-7--------7-7--|
|------------|------------|-------------|---------------|
|------------|------------|-------------|---------------|
|------------|------------|-------------|---------------|
|            |            |             |               |
|------------|------------|-------------|---------------|
|------------|------------|-------------|---------------|
|------------|------------|-------------|---------------|
|-7~~~~~~~~~-|(7)~~~~~~~~-|(7)~~~~~~~~~-|(7)~~~~~~~~~~~-|
|------------|------------|-------------|---------------|
|-5~~~~~~~~~-|(5)~~~~~~~~-|(5)~~~~~~~~~-|(5)~~~~~~~~~~0h|

|-9~~-----9//|-12~----12\\|-5~~---------|------5---7-5--|
|------------|------------|-------------|---------------|
|-9~~-----9//|-12~~---12\\|-7~~---------|------7---7-7--|
|------------|------------|-------------|---------------|
|------------|------------|-------------|---------------|
|------------|------------|-------------|---------------|
|            |            |             |               |
|------------|------------|-------------|---------------|
|------------|------------|-------------|---------------|
|------------|------------|-------------|---------------|
|-7~~~~~~~~~-|(7)~~~~~~~~-|(7)~~~~~~~~~-|(7)~~~~~~~~~~~-|
|------------|------------|-------------|---------------|
|-5~~~~~~~~~-|(5)~~~~~~~~-|(5)~~~~~~~~~-|(5)~~~~~~~~~~~-|

|-9~~-----9//|-12~----12\\|-5~~------7--|-5--------7-5--|
|------------|------------|-------------|---------------|
|-9~~-----9//|-12~~---12\\|-7~~------7--|-7--------7-7--|
|------------|------------|-------------|---------------|
|------------|------------|-------------|---------------|
|------------|------------|-------------|---------------|

|-9~~-----9--|-9\\7~~~~-5--7-|-5~~~~~~~~~~-|(5)~~~~~~~--|
|------------|---------------|-------------|------------|
|-9~~-----9--|-9\\7~~~~-7--7-|-7~~~~~~~~~~-|(7)~~~~~~~--|
|------------|---------------|-------------|------------|
|------------|---------------|-------------|------------|
|------------|---------------|-------------|------------|

-Jeyqwop
Добавлено: 14.04.2016
Другие материалы по этой песне:
  • Аккорды и текст

Страница создана 14.04.2016
http://primanota.ru/tapes-n-tapes/hidee-ho-chords.htm
Привет, Гость.
Предлагаем пройти революционный курс по гитаре.
Подарок от PrimaNota.Ru, забирай!