PrimaNota.ru - самый крупный в мире бесплатный архив песенных текстов, аккордов, табулатур и нот


Tantric - Love Song - текст песни, таба, видео

Регистрация Запомнить меня
Войти через:  Facebook Google Twitter Vk Yandex Mail.ru

Tantric - Love Song - текст песни, таба, видео

Печатать
Просмотров: 90
Tantric

Love Song

Intro x2
e-----------------------------------------------------------|
B-----------------------------------------------------------|
G--------------------7--7---9-------------------7--7---9----|
D----6---7--9--10----7--7---9---6---7--9--10----7--7---9----|
A----6---7--9--10----5--5---7---6---7--9--10----5--5---7----|
D----6---7--9--10---------------6---7--9--10----------------|
x1
e------------------|
B------------------|
G------------------|
D---6---7--9—10~---|
A---6---7--9—10~---|
D---6---7--9—10~---|

Verses x2
e----------------------------------------------------------|
B----------------------------------------------------------|
G—7-7xx-7-7x-7~7-7xx-7x-55xx-55x5~55xx-55x-------7---------|
D—7-7xx-7-7x-7~7-7xx-7x-55xx-55x5~55xx-55x-------7---------|
A—5-5xx-5-5x-5~4-4xx-4x-33xx-33x3~22xx-22x-2~3~4~5---------|
D----------------------------------------------------------|

x4
e----------------------------------------------------------|
B----------------------------------------------------------|
G--------------------7--7---9-------------------7--7---9---|
D----6---7--9--10----7--7---9---6---7--9--10----7--7---9---|
A----6---7--9--10----5--5---7---6---7--9--10----5--5---7---|
D----6---7--9--10---------------6---7--9--10---------------|

Chorus x2
e-------------------------------------------------------|
B-------------------------------------------------------|
G----7-7-7-7----7-7-7-7----9-9-9-9---10-10-10-10--------|
D----7-7-7-7----7-7-7-7----9-9-9-9---10-10-10-10--------|
A----5-5-7-7----7-7-7-7----7-7-7-7---10-10-10-10--------|
D----5-5-5-5----7-7-7-7--------------10-10-10-10--------|

Verses x4
e-------------------------------------------------------|
B-------------------------------------------------------|
G—7-7xx-7-7x-7~7-7xx-7x-55xx-55x5~55xx-55x-------7------|
D—7-7xx-7-7x-7~7-7xx-7x-55xx-55x5~55xx-55x-------7------|
A—5-5xx-5-5x-5~4-4xx-4x-33xx-33x3~22xx-22x-2~3~4~5------|
D-------------------------------------------------------|

x4
e----------------------------------------------------------|
B----------------------------------------------------------|
G--------------------7--7---9-------------------7--7---9---|
D----6---7--9--10----7--7---9---6---7--9--10----7--7---9---|
A----6---7--9--10----5--5---7---6---7--9--10----5--5---7---|
D----6---7--9--10---------------6---7--9--10---------------|

Chorus x2
e-------------------------------------------------------|
B-------------------------------------------------------|
G----7-7-7-7----7-7-7-7----9-9-9-9---10-10-10-10--------|
D----7-7-7-7----7-7-7-7----9-9-9-9---10-10-10-10--------|
A----5-5-7-7----7-7-7-7----7-7-7-7---10-10-10-10--------|
D----5-5-5-5----7-7-7-7--------------10-10-10-10--------|

Verses
e-------------------------------------------------------|
B-------------------------------------------------------|
G—7-7xx-7-7x-7~7-7xx-7x-55xx-55x5~55xx-55x-------7------|
D—7-7xx-7-7x-7~7-7xx-7x-55xx-55x5~55xx-55x-------7------|
A—5-5xx-5-5x-5~4-4xx-4x-33xx-33x3~22xx-22x-2~3~4~5------|
D-------------------------------------------------------|

Chorus x2
e-------------------------------------------------------|
B-------------------------------------------------------|
G----7-7-7-7----7-7-7-7----9-9-9-9---10-10-10-10--------|
D----7-7-7-7----7-7-7-7----9-9-9-9---10-10-10-10--------|
A----5-5-7-7----7-7-7-7----7-7-7-7---10-10-10-10--------|
D----5-5-5-5----7-7-7-7--------------10-10-10-10--------|
Добавлено: 27.06.2013
Другие материалы по этой песне:
  • Аккорды и текст

Страница создана 27.06.2013
http://primanota.ru/tantric/love-song-chords.htm
Привет, Гость.
Предлагаем пройти революционный курс по гитаре.
Подарок от PrimaNota.Ru, забирай!