PrimaNota.ru - самый крупный в мире бесплатный архив песенных текстов, аккордов, табулатур и нот


Tantric - Hey Now - текст песни, таба, видео

Регистрация Запомнить меня
Войти через:  Facebook Google Twitter Vk Yandex Mail.ru

Tantric - Hey Now - текст песни, таба, видео

Печатать
Просмотров: 121
Tantric - 'Hey Now'
From 'After We Go'
Tuning - DADGBE, down 1/2 step
tabbed by jjhand




Intro/Main Riff - Use flanger & delay

eb|---------------------------------|---------------------8-----8-----|
Bb|-----8-----6-----5---------------|-----8-----6-----5h6---5h6---5h6-|
Gb|-----------------------7-----5h7-|---------------------------------|
Db|-0-0---0-0---0-0---0-0---0-0-----|-0-0---0-0---0-0-----------------|
Ab|---------------------------------|---------------------------------|
Db|---------------------------------|---------------------------------|
    mute until the last few notes of the line

eb|---------------------------------|---------------------------------|
Bb|-----8-----6-----5---------------|---------------------------------|
Gb|-----------------------7-----5h7-|---5-5-----5-5-------7-----7-7---|
Db|-0-0---0-0---0-0---0-0---0-0-----|-3-----3-3-----3-3/5---5-5-------|
Ab|---------------------------------|---------------------------------|
Db|---------------------------------|---------------------------------|



Verse - Keep playing Main Riff



Pre- Chorus
|-------------------------8--------8-|--------8------8-----10--10-----10---|
|-----8-----6---8/10---10-----8/10---|-----10-----10-----10--10--10-10--10-|
|------------------------------------|-------------------------------------|
|-0-0---0-0---0------0------0--------|-0-0------0------0-------------------|
|------------------------------------|-------------------------------------|
|------------------------------------|-------------------------------------|



Chorus - play 2x with distortion only (other effects off)

  Db7                  Db7sus4            Bbm                Bsus2
|------2--------2----|-3----3-------3---|-2----2-------2---|------3-------------|
|------1--------1----|-1----1-------1---|-3----3-------3---|------3-------------|
|------2--------2----|-2----2-------2---|-4----4-------4---|-5----5-------------|
|-0----0--------0----|-0----0-------0---|-4----4-------4---|-5----5-------------|
|-0------------------|------------------|-2----2-------2---|-3----3----0h3--3h5-|
|-0------------------|------------------|------------------|-----------0h3--3h5-|

'Hey Now 




Play Main Riff during verse 2

Play Prechorus and Chorus Again





Heavy Bridge Riff (1:56-2:20)- 
start riff with a short rest to get offbeat rhythm

|---------------------------------|-------------------------------|
|---------------------------------|-------------------------------|
|---------------------------------|-------------------------------|
|---------------------------------|-------------------------------|
|---0-3-0-6-5-3-0---0-3-0-6-5-3-0-|-0-3-0-6-5-3-0---0-3-0-6-5-3-0-|
|---0-3-0-6-5-3-0---0-3-0-6-5-3-0-|-0-3-0-6-5-3-0---0-3-0-6-5-3-0-|



Acoustic Strums Chorus Chords 2x
                                                  ** 1st time only
|-2----------|-3---------|-2---------|-0----------0-0-0-|
|-1----------|-1---------|-3---------|-1----------0-0-0-|
|-2----------|-2---------|-4---------|-0----------0-0-0-|
|-0----------|-0---------|-4---------|-2----------2-2-2-|
|------------|-----------|-2---------|-3----------3-3-3-|
|------------|-----------|-----------|------------------|


Play Chorus Again

Play Heavy Bridge Riff to end song



KEY
************************************

| /   slide up
| \   slide down
| h   hammer-on
| p   pull-off
| x   Mute note
| b   Bend
| r  Bend release

************************************
Добавлено: 02.12.2013
Другие материалы по этой песне:
  • Аккорды и текст

Страница создана 20.07.2012
http://primanota.ru/tantric/hey-now-chords.htm
Привет, Гость.
Предлагаем пройти революционный курс по гитаре.
Подарок от PrimaNota.Ru, забирай!