PrimaNota.ru - самый крупный в мире бесплатный архив песенных текстов, аккордов, табулатур и нот


Tantric - Cliche - аккорды и текст, видео

Регистрация Запомнить меня
Войти через:  Facebook Google Twitter Vk Yandex Mail.ru

Tantric - Cliche - аккорды и текст, видео

Печатать
Просмотров: 135
Cliche
Tantric
TANTRIC
Track 13-CLICHE

Transcribed by: Rob "Fetus" Torrey
Email: fetusinchains@aol.com

Half Step Down
D-A-D-G-B-E Tuning

Intro/Verse
E---0-------------------------------------
B---0-------------------------------------
G---9-------------------------------------
D---9-------------------------------------
A---7-------------------------------------
D-----------------------------------------

Pre-Chorus
E---0--0--0-------------------------------
B---0--0--0-------------------------------
G---1--4--2-------------------------------
D---2--4--2-------------------------------
A---2--2--0-------------------------------
D---2-------------------------------------

Chorus
E---0--0--0--0--0--0--0-------------------
B---0--0--0--0--0--0--0-------------------
G---6--2--6--2--1--4--2-------------------
D---6--2--6--2--2--4--2-------------------
A---4--0--4--0--2--2--0-------------------
D---------------2-------------------------

Break
E--0--------7-------------------------------------
B--0----5-7---------------------------------------
G--9----------------------------------------------
D--9-----------6-6-6-6-7-6-4-4-4-4\6-6-6-6-7-6-4--
A--7----------------------------------------------
D-------------------------------------------------

Intro
Pre-Chorus
Verse
Pre-Chorus
Chorus
Verse
Pre-Chorus
Verse
Pre-Chorus
Chorus x2
Break & Solo
Chorus x2
     
Добавлено: 08.10.2013
Другие материалы по этой песне:
  • Аккорды и текст

Страница создана 17.06.2012
http://primanota.ru/tantric/cliche-chords.htm
Привет, Гость.
Предлагаем пройти революционный курс по гитаре.
Подарок от PrimaNota.Ru, забирай!