PrimaNota.ru - самый крупный в мире бесплатный архив песенных текстов, аккордов, табулатур и нот


Tankcsapda - Tetovlj Ki - таба

Регистрация Запомнить меня
Войти через:  Facebook Google Twitter Vk Yandex Mail.ru

Tankcsapda - Tetovlj Ki - таба

Печатать
Просмотров: 66
------------------------------------------------------------------------------------------------------|
------------------------------------------------------------------------------------------------------|
------------------------------------------------------------------------------------------------------|
---5-x-x-4-x-x-x-x-9-x-x-10-x-x-x-x-------------------------------------------------------------------|
---5-x-x-4-x-x-x-x-9-x-x-10-x-x-x-x-------------------------------------------------------------------|
---3-x-x-2-x-x-x-x-7-x-x-8--x-x-x-x-------------------------------------------------------------------|

(2x)

Pre-Verse:

------------------------------------------------------------------------------------------------------|
------------------------------------------------------------------------------------------------------|
------------------------------------------------------------------------------------------------------|
----5-5-5-4-4-4-4-4-9-9-9-1010101010------------------------------------------------------------------|
----5-5-5-4-4-4-4-4-9-9-9-1010101010------------------------------------------------------------------|
----3-3-3-2-2-2-2-2-7-7-7-8-8-8-8-8-------------------------------------------------------------------|

(4x)

(Az 1. sz? k?n csak a bassus megy!!!)

Chorus:

------------------------------------------------------------------------------------------------------|
------------------------------------------------------------------------------------------------------|
------------------------------------------------------------------------------------------------------|
----5-5-5-4-4-4-4-4-9-9-9-1010101010------------------------------------------------------------------|
----5-5-5-4-4-4-4-4-9-9-9-1010101010------------------------------------------------------------------|
----3-3-3-2-2-2-2-2-7-7-7-8-8-8-8-8-------------------------------------------------------------------|

(4x)

Bridge:

---------------------|
---------------------|
---------------------|
---5-5-5-------------|
---5-5-5-------------|
---3-3-3-------------|

(4x)

Pre-Verse:

------------------------------------------------------------------------------------------------------|
------------------------------------------------------------------------------------------------------|
------------------------------------------------------------------------------------------------------|
----5-5-5-4-4-4-4-4-9-9-9-1010101010------------------------------------------------------------------|
----5-5-5-4-4-4-4-4-9-9-9-1010101010------------------------------------------------------------------|
----3-3-3-2-2-2-2-2-7-7-7-8-8-8-8-8-------------------------------------------------------------------|

(4x)

2. Verse:

------------------------------------------------------------------------------------------------------|
------------------------------------------------------------------------------------------------------|
------------------------------------------------------------------------------------------------------|
---5-x-x-4-x-x-x-x-9-x-x-10-x-x-x-x-------------------------------------------------------------------|
---5-x-x-4-x-x-x-x-9-x-x-10-x-x-x-x-------------------------------------------------------------------|
---3-x-x-2-x-x-x-x-7-x-x-8--x-x-x-x-------------------------------------------------------------------|

(4x)

Chorus:

------------------------------------------------------------------------------------------------------|
------------------------------------------------------------------------------------------------------|
------------------------------------------------------------------------------------------------------|
----5-5-5-4-4-4-4-4-9-9-9-1010101010------------------------------------------------------------------|
----5-5-5-4-4-4-4-4-9-9-9-1010101010------------------------------------------------------------------|
----3-3-3-2-2-2-2-2-7-7-7-8-8-8-8-8-------------------------------------------------------------------|

(4x)

Bridge:

---------------------|
---------------------|
---------------------|
---5-5-5-5-5-5-5-5-5-|
---5-5-5-5-5-5-5-5-5-|
---3-3-3-3-3-3-3-3-3-|

(1x)

3. Pre-Verse:

-------------------------------------------------------------10-10----10-----10----10----10------10---|
------------------------------------------------------------------------------------------------------|
------------------------------------------------------------------------------------------------------|
---4-4------------------------------------------------------------------------------------------------|
---4-4------------------------------------------------------------------------------------------------|
---2-2------------------------------------------------------------------------------------------------|

(Ehhez a részhez hallgasd meg a számot!!!)

Chorus:

------------------------------------------------------------------------------------------------------|
------------------------------------------------------------------------------------------------------|
------------------------------------------------------------------------------------------------------|
----5-5-5-4-4-4-4-4-9-9-9-1010101010------------------------------------------------------------------|
----5-5-5-4-4-4-4-4-9-9-9-1010101010------------------------------------------------------------------|
----3-3-3-2-2-2-2-2-7-7-7-8-8-8-8-8-------------------------------------------------------------------|

(4x)

Bridge:

---------------------|
---------------------|
---------------------|
---5-5-5-------------|
---5-5-5-------------|
---3-3-3-------------|

 NAON KIRÁLY ! HAJRÁ ! :)
Добавлено: 26.10.2013
Другие материалы по этой песне:
  • Аккорды и текст

Страница создана 11.08.2013
http://primanota.ru/tankcsapda/tetovlj-ki-chords.htm
Привет, Гость.
Предлагаем пройти революционный курс по гитаре.
Подарок от PrimaNota.Ru, забирай!