PrimaNota.ru - самый крупный в мире бесплатный архив песенных текстов, аккордов, табулатур и нот


Tankcsapda - Fordulj Fel - таба, бас-таба, видео

Регистрация Запомнить меня
Войти через:  Facebook Google Twitter Vk Yandex Mail.ru

Tankcsapda - Fordulj Fel - таба, бас-таба, видео

Печатать
Просмотров: 110
Уроки эстрадного вокала в Санкт-Петербурге
Tankcsapda - Fordulj fel
(tab by Razer)
TablEdited by 
Tuning : E A D G B E 	Time Signature: 4/4

 |   |   |   |    |   |   |   |    |   |   |   |    |   |   |   |    
|----------------|----------------|----------------|----------------|
|----------------|----------------|----------------|----------------|
|----------------|----------------|----------------|----------------|
|----------------|----------5-5-5-|5---------------|----------5-5-5-|
|----------------|----------5-5-5-|5---------------|----------5-5-5-|
|----------------|----------3-3-3-|3---------------|----------3-3-3-|

 |   |   |   |    |   |   |   |    |   |   |   |    |   |   |   |    
|----------------|----------------|----------------|----------------|
|----------------|----------------|----------------|----------------|
|----------------|----------------|----------------|----------------|
|5---------------|----------5-5-5-|2---------------|----------5-5-5-|
|5---------------|----------5-5-5-|2---------------|----------5-5-5-|
|3---------------|----------3-3-3-|0---------------|----------3-3-3-|

 |   |   |   |    |   |   |   |    |   |   |   |    |   |   |   |    
|----------------|----------------|----------------|----------------|
|----------------|----------------|----------------|----------------|
|----------------|----------------|----------------|----------------|
|5-2-2-5-2---5-2-|5-2-2-5-2---5-2-|5-2-2-5-2---5-2-|5-2-2-5-2---5-2-|
|5-2-2-5-2---5-2-|5-2-2-5-2---5-2-|5-2-2-5-2---5-2-|5-2-2-5-2---5-2-|
|3-0-0-3-0---3-0-|3-0-0-3-0---3-0-|3-0-0-3-0---3-0-|3-0-0-3-0---3-0-|

 |   |   |   |    |   |   |   |    |   |   |   |    |   |   |   |    
|----------------|----------------|----------------|----------------|
|----------------|----------------|----------------|----------------|
|----------------|----------------|----------------|----------------|
|5-2-2-5-2---5-2-|5-2-2-5-2---5-2-|5-2-2-5-2---5-2-|5-2-2-5-2---5-2-|
|5-2-2-5-2---5-2-|5-2-2-5-2---5-2-|5-2-2-5-2---5-2-|5-2-2-5-2---5-2-|
|3-0-0-3-0---3-0-|3-0-0-3-0---3-0-|3-0-0-3-0---3-0-|3-0-0-3-0---3-0-|

 |   |   |   |    |   |   |   |    |   |   |   |    |   |   |   |    
|----------------|----------------|----------------|----------------|
|----------------|----------------|----------------|----------------|
|----------------|----------------|----------------|----------------|
|2---------------|----------------|5-2-2-5-2---5-2-|5-2-2-5-2---5-2-|
|2---------------|----------------|5-2-2-5-2---5-2-|5-2-2-5-2---5-2-|
|0---------------|----------------|3-0-0-3-0---3-0-|3-0-0-3-0---3-0-|

 |   |   |   |    |   |   |   |    |   |   |   |    |   |   |   |    
|----------------|----------------|----------------|----------------|
|----------------|----------------|----------------|----------------|
|----------------|----------------|----------------|----------------|
|2---------------|----------------|5-2-2-5-2---5-2-|5-2-2-5-2---5-2-|
|2---------------|----------------|5-2-2-5-2---5-2-|5-2-2-5-2---5-2-|
|0---------------|----------------|3-0-0-3-0---3-0-|3-0-0-3-0---3-0-|

 |   |   |   |    |   |   |   |    |   |   |   |    |   |   |   |    
|----------------|----------------|----------------|----------------|
|----------------|----------------|----------------|----------------|
|5---5-5---5-5---|5-5---5-5---5-5-|7---7---7-7-7-7-|7---------------|
|5---5-5---5-5---|5-5---5-5---5-5-|7---7---7-7-7-7-|7---------------|
|3---3-3---3-3---|3-3---3-3---3-3-|5---5---5-5-5-5-|5---------------|
|----------------|----------------|----------------|----------------|

 |   |   |   |    |   |   |   |    |   |   |   |    |   |   |   |    
|----------------|----------------|----------------|----------------|
|----------------|----------------|----------------|----------------|
|----------------|----------------|----------------|----------------|
|5-2-2-5-2---5-2-|5-2-2-5-2---5-2-|5-2-2-5-2---5-2-|5-2-2-5-2---5-2-|
|5-2-2-5-2---5-2-|5-2-2-5-2---5-2-|5-2-2-5-2---5-2-|5-2-2-5-2---5-2-|
|3-0-0-3-0---3-0-|3-0-0-3-0---3-0-|3-0-0-3-0---3-0-|3-0-0-3-0---3-0-|

 |   |   |   |    |   |   |   |    |   |   |   |    |   |   |   |    
|----------------|----------------|----------------|----------------|
|----------------|----------------|----------------|----------------|
|----------------|----------------|----------------|----------------|
|5-2-2-5-2---5-2-|5-2-2-5-2---5-2-|5-2-2-5-2---5-2-|5-2-2-5-2---5-2-|
|5-2-2-5-2---5-2-|5-2-2-5-2---5-2-|5-2-2-5-2---5-2-|5-2-2-5-2---5-2-|
|3-0-0-3-0---3-0-|3-0-0-3-0---3-0-|3-0-0-3-0---3-0-|3-0-0-3-0---3-0-|

 |   |   |   |    |   |   |   |    |   |   |   |    |   |   |   |    
|----------------|----------------|----------------|----------------|
|----------------|----------------|----------------|----------------|
|----------------|----------------|----------------|----------------|
|2---------------|----------------|5-2-2-5-2---5-2-|5-2-2-5-2---5-2-|
|2---------------|----------------|5-2-2-5-2---5-2-|5-2-2-5-2---5-2-|
|0---------------|----------------|3-0-0-3-0---3-0-|3-0-0-3-0---3-0-|

 |   |   |   |    |   |   |   |    |   |   |   |    |   |   |   |    
|----------------|----------------|----------------|----------------|
|----------------|----------------|----------------|----------------|
|----------------|----------------|----------------|----------------|
|2---------------|----------------|5-2-2-5-2---5-2-|5-2-2-5-2---5-2-|
|2---------------|----------------|5-2-2-5-2---5-2-|5-2-2-5-2---5-2-|
|0---------------|----------------|3-0-0-3-0---3-0-|3-0-0-3-0---3-0-|

 |   |   |   |    |   |   |   |    |   |   |   |    |   |   |   |    
|----------------|----------------|----------------|----------------|
|----------------|----------------|----------------|----------------|
|5---5-5---5-5---|5-5---5-5---5-5-|7---7---7-7-7-7-|7---------------|
|5---5-5---5-5---|5-5---5-5---5-5-|7---7---7-7-7-7-|7---------------|
|3---3-3---3-3---|3-3---3-3---3-3-|5---5---5-5-5-5-|5---------------|
|----------------|----------------|----------------|----------------|

 |   |   |   |    |   |   |   |    |   |   |   |    |   |   |   |    
|----------------|----------------|----------------|----------------|
|----------------|----------------|----------------|----------------|
|----------------|----------------|----------------|----------------|
|5-2-2-5-2---5-2-|5-2-2-5-2---5-2-|5-2-2-5-2---5-2-|5-2-2-5-2---5-2-|
|5-2-2-5-2---5-2-|5-2-2-5-2---5-2-|5-2-2-5-2---5-2-|5-2-2-5-2---5-2-|
|3-0-0-3-0---3-0-|3-0-0-3-0---3-0-|3-0-0-3-0---3-0-|3-0-0-3-0---3-0-|

 |   |   |   |    |   |   |   |    |   |   |   |    |   |   |   |    
|----------------|----------------|----------------|----------------|
|----------------|----------------|----------------|----------------|
|----------------|----------------|----------------|----------------|
|7---7-7-7-7---7-|7---7-7---7-7-7-|7---7-7-7-7---7-|7---7-7---7-7-7-|
|7---7-7-7-7---7-|7---7-7---7-7-7-|7---7-7-7-7---7-|7---7-7---7-7-7-|
|5---5-5-5-5---5-|5---5-5---5-5-5-|5---5-5-5-5---5-|5---5-5---5-5-5-|

 |   |   |   |    |   |   |   |    |   |   |   |    |   |   |   |    
|----------------|----------------|----------------|----------------|
|----------------|----------------|----------------|----------------|
|4---4-4-4-4---4-|4---4-4---4-4-4-|4-4-4-4-4-4-4-4-|4-4-4-4-4-4-4-4-|
|4---4-4-4-4---4-|4---4-4---4-4-4-|4-4-4-4-4-4-4-4-|4-4-4-4-4-4-4-4-|
|2---2-2-2-2---2-|2---2-2---2-2-2-|2-2-2-2-2-2-2-2-|2-2-2-2-2-2-2-2-|
|----------------|----------------|----------------|----------------|

 |   |   |   |    |   |   |   |    |   |   |   |    |   |   |   |    
|----------------|----------------|----------------|----------------|
|----------------|----------------|----------------|----------------|
|----------------|----------------|----------------|----------------|
|5-2-2-5-2---5-2-|5-2-2-5-2---5-2-|5-2-2-5-2---5-2-|5-2-2-5-2---5-2-|
|5-2-2-5-2---5-2-|5-2-2-5-2---5-2-|5-2-2-5-2---5-2-|5-2-2-5-2---5-2-|
|3-0-0-3-0---3-0-|3-0-0-3-0---3-0-|3-0-0-3-0---3-0-|3-0-0-3-0---3-0-|

 |   |   |   |    |   |   |   |    |   |   |   |    |   |   |   |    
|----------------|----------------|----------------|----------------|
|----------------|----------------|----------------|----------------|
|----------------|----------------|----------------|----------------|
|5-2-2-5-2---5-2-|5-2-2-5-2---5-2-|5-2-2-5-2---5-2-|5-2-2-5-2---5-2-|
|5-2-2-5-2---5-2-|5-2-2-5-2---5-2-|5-2-2-5-2---5-2-|5-2-2-5-2---5-2-|
|3-0-0-3-0---3-0-|3-0-0-3-0---3-0-|3-0-0-3-0---3-0-|3-0-0-3-0---3-0-|

 |   |   |   |    |   |   |   |    |   |   |   |    |   |   |   |    
|----------------|----------------|----------------|----------------|
|----------------|----------------|----------------|----------------|
|----------------|----------------|----------------|----------------|
|7---7-7-7-7---7-|7---7-7---7-7-7-|7---7-7-7-7---7-|7---7-7---7-7-7-|
|7---7-7-7-7---7-|7---7-7---7-7-7-|7---7-7-7-7---7-|7---7-7---7-7-7-|
|5---5-5-5-5---5-|5---5-5---5-5-5-|5---5-5-5-5---5-|5---5-5---5-5-5-|

 |   |   |   |    |   |   |   |    |   |   |   |    |   |   |   |    
|----------------|----------------|----------------|----------------|
|----------------|----------------|----------------|----------------|
|4---4-4-4-4---4-|4---4-4---4-4-4-|4---4-4-4-4---4-|4-4-4-4-4-4-4-4-|
|4---4-4-4-4---4-|4---4-4---4-4-4-|4---4-4-4-4---4-|4-4-4-4-4-4-4-4-|
|2---2-2-2-2---2-|2---2-2---2-2-2-|2---2-2-2-2---2-|2-2-2-2-2-2-2-2-|
|----------------|----------------|----------------|----------------|

 |   |   |   |    |   |   |   |    |   |   |   |    |   |   |   |    
|----------------|----------------|----------------|----------------|
|----------------|----------------|----------------|----------------|
|----------------|----------------|----------------|----------------|
|2---------------|----------------|----------------|----------------|
|2---------------|----------------|----------------|----------2-2-2-|
|0---------------|----------------|----------------|----------0-0-0-|

 |   |   |   |    |   |   |   |    |   |   |   |    |   |   |   |    
|----------------|----------------|----------------|----------------|
|----------------|----------------|----------------|----------------|
|----------------|----------------|----------------|----------------|
|----------------|----------------|----------------|----------------|
|2---------------|----------------|----------------|----------------|
|0---------------|----------------|----------------|----------------|

 |   |   |   |    |   |   |   |    |   |   |   |    |   |   |   |    
|----------------|----------------|----------------|----------------|
|----------------|----------------|----------------|----------------|
|----------------|----------------|----------------|----------------|
|----------------|----------------|----------------|----------------|
|----------------|----------------|----------------|----------------|
|----------------|----------------|----------------|----------------|

 |   |   |   |    |   |   |   |    |   |   |   |    |   |   |   |    
|----------------|----------------|----------------|----------------|
|----------------|----------------|----------------|----------------|
|----------------|----------------|----------------|----------------|
|----------------|----------------|----------------|----------------|
|----------------|----------------|----------------|----------------|
|----------------|----------------|----------------|----------------|

 |   |   |   |    |   |   |   |    |   |   |   |    |   |   |   |    
|----------------|----------------|----------------|----------------|
|----------------|----------------|----------------|----------------|
|----------------|----------------|----------------|----------------|
|----------------|----------------|----------------|----------------|
|----------------|----------------|----------------|----------------|
|----------------|----------------|----------------|----------------|

 |   |   |   |    |   |   |   |    |   |   |   |    |   |   |   |    
|----------------|----------------|----------------|----------------|
|----------------|----------------|----------------|----------------|
|----------------|----------------|----------------|----------------|
|----------------|----------------|----------------|----------------|
|5-2-2-5-2-2-5-2-|5-2-2-5-2-------|5-2-2-5-2-2-5-2-|5-2-2-5-2-------|
|3-0-0-3-0-0-3-0-|3-0-0-3-0-------|3-0-0-3-0-0-3-0-|3-0-0-3-0-------|

 |   |   |   |    |   |   |   |    |   |   |   |    |   |   |   |    
|----------------|----------------|----------------|----------------|
|----------------|----------------|----------------|----------------|
|----------------|----------------|----------------|----------------|
|----------------|----------------|----------------|----------------|
|5-2-2-5-2-2-5-2-|5-2-2-5-2-------|5-2-2-5-2-2-5-2-|5-2-2-5---------|
|3-0-0-3-0-0-3-0-|3-0-0-3-0-------|3-0-0-3-0-0-3-0-|3-0-0-3---------|

 |   |   |   |    |   |   |   |    |   |   |   |    |   |   |   |    
|----------------|----------------|----------------|----------------|
|----------------|----------------|----------------|----------------|
|----------------|----------------|------------2---|----------------|
|0-----0-----0---|0-----0-----0---|0-----0-----0-4-|7-4-4-7-4-4-7---|
|--2-2---2-2---2-|--2-2---2-2---2-|--2-2---2-2---2-|5-2-2-5-2-2-7---|
|----------------|----------------|----------------|------------5---|

 |   |   |   |    |   |   |   |    |   |   |   |    |   |   |   |    
|----------------|----------------|----------------|----------------|
|----------------|----------------|----------------|----------------|
|----------------|----------------|----------------|----------------|
|5-2-2-5-2---5-2-|5-2-2-5-2---5-2-|5-2-2-5-2---5-2-|5-2-2-5-2---5-2-|
|5-2-2-5-2---5-2-|5-2-2-5-2---5-2-|5-2-2-5-2---5-2-|5-2-2-5-2---5-2-|
|3-0-0-3-0---3-0-|3-0-0-3-0---3-0-|3-0-0-3-0---3-0-|3-0-0-3-0---3-0-|

 |   |   |   |    |   |   |   |    |   |   |   |    |   |   |   |    
|----------------|----------------|----------------|----------------|
|----------------|----------------|----------------|----------------|
|----------------|----------------|----------------|----------------|
|5-2-2-5-2---5-2-|5-2-2-5-2---5-2-|5-2-2-5-2---5-2-|5-2-2-5-2---5-2-|
|5-2-2-5-2---5-2-|5-2-2-5-2---5-2-|5-2-2-5-2---5-2-|5-2-2-5-2---5-2-|
|3-0-0-3-0---3-0-|3-0-0-3-0---3-0-|3-0-0-3-0---3-0-|3-0-0-3-0---3-0-|

 |   |   |   |    |   |   |   |    |   |   |   |    |   |   |   |    
|----------------|----------------|----------------|----------------|
|----------------|----------------|----------------|----------------|
|5-5-5-5-5-5-5-5-|5-5-5-5-5-5-5-5-|7-7-7-7-7-7-7-7-|7-7-7-7-7-7-7-7-|
|5-5-5-5-5-5-5-5-|5-5-5-5-5-5-5-5-|7-7-7-7-7-7-7-7-|7-7-7-7-7-7-7-7-|
|3-3-3-3-3-3-3-3-|3-3-3-3-3-3-3-3-|5-5-5-5-5-5-5-5-|5-5-5-5-5-5-5-5-|
|----------------|----------------|----------------|----------------|

 |   |   |   |    |   |   |   |    |   |   |   |    |   |   |   |    
|----------------|----------------|----------------|----------------|
|----------------|----------------|----------------|----------------|
|----------------|----------------|----------------|----------------|
|5-2-2-5-2---5-2-|5-2-2-5-2---5-2-|5-2-2-5-2---5-2-|5-2-2-5-2---5-2-|
|5-2-2-5-2---5-2-|5-2-2-5-2---5-2-|5-2-2-5-2---5-2-|5-2-2-5-2---5-2-|
|3-0-0-3-0---3-0-|3-0-0-3-0---3-0-|3-0-0-3-0---3-0-|3-0-0-3-0---3-0-|

 |   |   |   |    |   |   |   |    |   |   |   |    |   |   |   |    
|----------------|----------------|----------------|----------------|
|----------------|----------------|----------------|----------------|
|5-5-5-5-5-5-5-5-|5-5-5-5-5-5-5-5-|7-7-7-7-7-7-7-7-|7-7-7-7-7-7-7-7-|
|5-5-5-5-5-5-5-5-|5-5-5-5-5-5-5-5-|7-7-7-7-7-7-7-7-|7-7-7-7-7-7-7-7-|
|3-3-3-3-3-3-3-3-|3-3-3-3-3-3-3-3-|5-5-5-5-5-5-5-5-|5-5-5-5-5-5-5-5-|
|----------------|----------------|----------------|----------------|

 |   |   |   |    |   |   |   |    |   |   |   |    |   |   |   |    
|----------------|----------------|----------------|----------------|
|----------------|----------------|----------------|----------------|
|5-5-5-5-5-5-5-5-|5-5-5-5-5-5-5-5-|7-7-7-7-7-7-7-7-|7---------------|
|5-5-5-5-5-5-5-5-|5-5-5-5-5-5-5-5-|7-7-7-7-7-7-7-7-|7---------------|
|3-3-3-3-3-3-3-3-|3-3-3-3-3-3-3-3-|5-5-5-5-5-5-5-5-|5---------------|
|----------------|----------------|----------------|----------------|

 |   |   |   |    |   |   |   |    |   |   |   |    |   |   |   |    
|----------------|----------------|----------------|----------------|
|----------------|----------------|----------------|----------------|
|----------------|----------------|----------------|----------------|
|2---------------|----------------|----------------|----------------|
|2---------------|----------------|----------------|----------------|
|0---------------|----------------|----------------|----------------|

 |   |   |   |    |   |   |   |    
|----------------|----------------|
|----------------|----------------|
|----------------|----------------|
|----------------|----------------|
|----------------|----------------|
|----------------|----------------|


Created with TablEdit http://www.tabledit.com/
Добавлено: 17.11.2013
Другие материалы по этой песне:
  • Аккорды и текст

Страница создана 17.11.2013
http://primanota.ru/tankcsapda/fordulj-fel-chords.htm
Привет, Гость.
Предлагаем пройти революционный курс по гитаре.
Подарок от PrimaNota.Ru, забирай!