PrimaNota.ru - самый крупный в мире бесплатный архив песенных текстов, аккордов, табулатур и нот


Tankcsapda - Az Let A Legjobb M Reg - аккорды и текст, таба, видео

Регистрация Запомнить меня
Войти через:  Facebook Google Twitter Vk Yandex Mail.ru

Tankcsapda - Az Let A Legjobb M Reg - аккорды и текст, таба, видео

Печатать
Просмотров: 98
Уроки эстрадного вокала в Санкт-Петербурге
Az Let A Legjobb M Reg
Tankcsapda


Bevezetх:
  E |0--0--2---2-32-00--0--2---
  H |2--1--3---3-33-32--1--3---
  G |2--0--2---2-22-22--0--2---
  D |2--2--0---0-00-02--2--0---
  A |0--3--0---0-00-00--3--0---
  E |---------------|---------------|


-2-32-00--0--2---2-32-00--0--2---2-32-2
-3-33-32--1--3---3-33-32--1--3---3-33-3
-2-22-22--0--2---2-22-22--0--2---2-22-2
-0-00-02--2--0---0-00-02--2--0---0-00-0
-0-00-00--3--0---0-00-00--3--0---0-00-0
|---------------|---------------|


  e |2--2--2---2-32-00--0--3--------|
  H |3--3--3---3-33-33--3--3--------|
  G |2--2--2---2-22-22--2--2--------|
  D |0--0--0---0-00-00--0--0--------|
  A |0--3--0---0-00-00--0--0--------|
  E |---------------|---------------|


Verse:
-Elsх kйt versszak akkordokkal, tцbbi kvintekkel-

      A             
Egy szemйtdombra szьltek
   A            
De хk is kikйszьltek
       C             
Nincs semmim, nincs helyem
        D                    
Csak a fejem, hogy a falba verjem

Йn gonoszabb leszek mint az цrdцg
Ha eszembe jut bepцrgцk
Mint a kerйk, meg a kormбny
Meg a mindenhatу kormбny

Meg a kurvбm, aki sohase nedves
De hozzбm mindig kedves
Bevesz mint egy vбrat
Йn meg beleeresztem a tбrat

Mer' х a csajom, aki ha elkap
Elintйz egybхl
Nбlam van miуta meglйpett
Az intйzetbхl

Ez nem New York, nem Los Angeles
Ha belemйgy jobb, ha tudod mi lesz
Nappal az бgy, йjjel az utca
A kokу бrusok цsszes cucca

A stukker a zsaru kezйben
Egy mбsik banda kereszttьzйben
Nem lennйk a helyedben
Mikor golyу lesz a fejedben

Mint a prйdikбtor a tйvйben
Fasizmus van e vйrйben
Ьvцlt a szemйn lбtszik
Х is ъgy hisz, ahogy a nбcik

A kopу, ha vйrszagot йrez
Elхszцr ьt, aztбn kйrdez
Az idх jу de rossz a hely
Dugd fel a botodat magadnak, seggfej

||:  C  A  D    :||

Ez dzsungel, ez bцrtцn
A negyvenцtцsцmet tцltцm
Ez az бlom, ez az йlet
Lehet, hogy most йr vйget

Ha gitбrt fognбl, йn szуlok
Tыnj el innen, nem a te dolgod
Csak szemйtdomb, csak disznууl
Ez a szanaszйt baszott rock and roll

Le az utcбra ki a tйrre
Senki se lцkhet fйlre
Patkбny vagyok, de nem fйreg
Az йlet a legjobb mйreg

ref.:

A  C  D   
       Az йlet a legjobb mйreg
A  C  D   
       Az йlet a legjobb mйreg
A  C  D   
       Az йlet a legjobb mйreg
A  C  D   D - C#m = C

Hm        
D        
Hm        
D     E   
        Az йlet a legjobb mйreg
Hm  D  E   
        Az йlet a legjobb mйreg
Hm  D  E   
        Az йlet a legjobb mйreg
Hm  D  E   
        Az йlet a legjobb mйreg
Hm  D  E   
        Az йlet a legjobb mйreg

A  C       D            


Добавлено: 27.02.2014
Другие материалы по этой песне:
  • Аккорды и текст

Страница создана 20.07.2013
http://primanota.ru/tankcsapda/az-let-a-legjobb-m-reg-chords.htm
Привет, Гость.
Предлагаем пройти революционный курс по гитаре.
Подарок от PrimaNota.Ru, забирай!