PrimaNota.ru - самый крупный в мире бесплатный архив песенных текстов, аккордов, табулатур и нот


Tankard - Stay Thirsty! - текст песни, таба, видео

Регистрация Запомнить меня
Войти через:  Facebook Google Twitter Vk Yandex Mail.ru

Tankard - Stay Thirsty! - текст песни, таба, видео

Печатать
Просмотров: 143
Song: Stay Thirsty!

Artist: Tankard

Album: Thirst (2007)

The Clean Guitar part at the beginning is Not at all like this but these are the chords and it should give you
an idea of what to do

Eb|------------------------------------
Bb|------------------------------------
Gb|--9--7--9-----------10------------9--
Db|--9--7--9-----------10------------9--
Ab|--7--5--7--5--7--8--8---10--9--7--7--
Eb|------------------------------------

Remember that's not how you play the intro, that is just the chords that you use

Here is the Solo for the intro. It is basically a C Major Scale. It isn't too challenging and it sounds pretty
cool. Enjoy!

Eb|-----------------------------------------------------------------------------------------
Bb|--------------------------------------10--8--10/12--12-----------------------------------
Gb|-------------------------10--9--7--9--------------------10--9--7--9--7-------------------
Db|------------------------------------------------------------------------10--7------------
Ab|---------7--8--10--8--7--------------------------------------------------------10--8--7--
Eb|--8--10----------------------------------------------------------------------------------


-------------------------10--12--13--12--------------------------------------------17--------------------------
--10--12--13--12-------------------------10h12--12--10--12--13--12---------17--20------20--18--17--18--15--17--
------------------10--9---------------------------------------------10--9--------------------------------------
---------------------------------------------------------------------------------------------------------------
---------------------------------------------------------------------------------------------------------------
---------------------------------------------------------------------------------------------------------------


P.S. You are officially a metalhead.    
Добавлено: 20.12.2015
Вам также может быть интересно:
Другие материалы по этой песне:
  • Аккорды и текст

Страница создана 08.11.2013
http://primanota.ru/tankard/stay-thirsty-chords.htm
Привет, Гость.
Предлагаем пройти революционный курс по гитаре.
Подарок от PrimaNota.Ru, забирай!