PrimaNota.ru - самый крупный в мире бесплатный архив песенных текстов, аккордов, табулатур и нот


Tankard - Galow - текст песни, таба, видео

Регистрация Запомнить меня
Войти через:  Facebook Google Twitter Vk Yandex Mail.ru

Tankard - Galow - текст песни, таба, видео

Печатать
Просмотров: 130
I didnt tab the solo, havent gotten around to it yet, may do soon though!


Enjoy!


Intro Riff:
----|-----|----------------------|-----|---------------------------------------|
----|-----|----------------------|-----|---------------------------------------|
----|-----|----------------------|-----|---------------------------------------|
----|-----|--------4-5-----3-----|-----|------8-----5--------------------------|
-2--|bass-|--------2-3-----1--2--|bass-|------6-----3--------------------------|
-0--|break|--0-0-------0-0----0--|break|-0-0----0-0----------------------------|
             p p       p p               p p    p p




Verse 1 riffs:
-------------------------------------------------------------------------------|
-------------------------------------------------------------------------------|
-------------------------------------------------------------------------------|
----------------------------------------2h3p2-----4-5-----3--------------------|
----------7654----------2321----------23----------2-3-----1--------------------|
-0-000000------0-000000------0-000000---------0-0-----0-0----------------------|
 p pppppp      p pppppp      p pppppp         p p     p p

-------------------------------------------------------------------------------|
-------------------------------------------------------------------------------|
-------------------------------------------------------------------------------|
----------------------------------------2h3p2-----8-------5--------------------|
----------7654----------2321----------23----------6-------3--------------------|
-0-000000------0-000000------0-000000---------0-0-----0-0----------------------|
 p pppppp      p pppppp      p pppppp         p p     p p

-------------------------------------------------------------------------------|
-------------------------------------------------------------------------------|
-------------------------------------------------------------------------------|
--------------4-5---------------3---------------4-5---------2-1----------------|
--------------2-3---------------1---------------2-3-----2-3-----3--------------|
-0-0000000000------0-0000000000----0-0000000000-----0-0------------------------|
 p pppppppppp      p pppppppppp    p pppppppppp     p p

-------------------------------------------------------------------------------|
-------------------------------------------------------------------------------|
-------------------------------------------------------------------------------|
--------------4-5---------------3---------------4-5-----8------8---------------|
--------------2-3---------------1---------------2-3-----6------6---------------|
-0-0000000000------0-0000000000----0-0000000000-----0-0----0-0-----------------|
 p pppppppppp      p pppppppppp    p pppppppppp     p p    p p


-------------------------------------------------------------------------------|
-------------------------------------------------------------------------------|
-------------------------------------------------------------------------------|
----------------------------------------2h3p2-----4-5-----3--------------------|
----------7654----------2321----------23----------2-3-----1--------------------|
-0-000000------0-000000------0-000000---------0-0-----0-0----------------------|
 p pppppp      p pppppp      p pppppp         p p     p p

-------------------------------------------------------------------------------|
-------------------------------------------------------------------------------|
-------------------------------------------------------------------------------|
----------------------------------------2h3p2-----8-------5-------3------------|
----------7654----------2321----------23----------6-------3-------1-------3--2-|
-0-000000------0-000000------0-000000---------0-0-----0-0-----0-0-----0-0-1--0-|
 p pppppp      p pppppp      p pppppp         p p     p p




pre chorus fill:
---------------------------|
---------------------------|
---------------------------|
-----2-3-2-1---------------|
-2-3---------3-2-----------|
---------------------------|




Chorus Riff:
-------------------------------------------------------------------------------|
-------------------------------------------------------------------------------|
-------------------------------------------------------------------------------|
-9-----9-----9-7-5-----5-----5-7-8-----8-----8---------------------------------|
-77777-77777-7-5-33333-33333-3-5-66666-66666-6-8-7-----7-----7-----------------|
-----------------------------------------------6-55555-55555-5-----------------|
  pppp  pppp      pppp  pppp      pppp  pppp      pppp  pppp

-------------------------------------------------------------------------------|
-------------------------------------------------------------------------------|
-------------------------------------------------------------------------------|
-9-----9-----9-5-8-----6-----8-------------------------------------------------|
-77777-77777-7-3-66666-66666-6-8-7-----7-----7-8-7-----7-----7-----------------|
-------------------------------6-55555-55555-5-6-55555-55555-5-----------------|
  pppp  pppp      pppp  pppp      pppp  pppp      pppp  pppp




Bridge riff: same as intro
----|-----|----------------------|-----|---------------------------------------|
----|-----|----------------------|-----|---------------------------------------|
----|-----|----------------------|-----|---------------------------------------|
----|-----|--------4-5-----3-----|-----|------8-----5--------------------------|
-2--|bass-|--------2-3-----1--2--|bass-|------6-----3--------------------------|
-0--|break|--0-0-------0-0----0--|break|-0-0----0-0----------------------------|
             p p       p p               p p    p p




Verse 2 riffs:
-------------------------------------------------------------------------------|
-------------------------------------------------------------------------------|
-------------------------------------------------------------------------------|
----------------------------------------2h3p2-----4-5-----3--------------------|
----------7654----------2321----------23----------2-3-----1--------------------|
-0-000000------0-000000------0-000000---------0-0-----0-0----------------------|
 p pppppp      p pppppp      p pppppp         p p     p p

-------------------------------------------------------------------------------|
-------------------------------------------------------------------------------|
-------------------------------------------------------------------------------|
----------------------------------------2h3p2-----8-------5--------------------|
----------7654----------2321----------23----------6-------3--------------------|
-0-000000------0-000000------0-000000---------0-0-----0-0----------------------|
 p pppppp      p pppppp      p pppppp         p p     p p

-------------------------------------------------------------------------------|
-------------------------------------------------------------------------------|
-------------------------------------------------------------------------------|
--------------4-5---------------3---------------4-5---------2-1----------------|
--------------2-3---------------1---------------2-3-----2-3-----3--------------|
-0-0000000000------0-0000000000----0-0000000000-----0-0------------------------|
 p pppppppppp      p pppppppppp    p pppppppppp     p p

-------------------------------------------------------------------------------|
-------------------------------------------------------------------------------|
-------------------------------------------------------------------------------|
--------------4-5---------------3---------------4-5-----8------8---------------|
--------------2-3---------------1---------------2-3-----6------6---------------|
-0-0000000000------0-0000000000----0-0000000000-----0-0----0-0-----------------|
 p pppppppppp      p pppppppppp    p pppppppppp     p p    p p


-------------------------------------------------------------------------------|
-------------------------------------------------------------------------------|
-------------------------------------------------------------------------------|
----------------------------------------2h3p2-----4-5-----3--------------------|
----------7654----------2321----------23----------2-3-----1--------------------|
-0-000000------0-000000------0-000000---------0-0-----0-0----------------------|
 p pppppp      p pppppp      p pppppp         p p     p p

-------------------------------------------------------------------------------|
-------------------------------------------------------------------------------|
-------------------------------------------------------------------------------|
----------------------------------------2h3p2-----8-------5-------3------------|
----------7654----------2321----------23----------6-------3-------1-------3--2-|
-0-000000------0-000000------0-000000---------0-0-----0-0-----0-0-----0-0-1--0-|
 p pppppp      p pppppp      p pppppp         p p     p p




pre chorus fill:
---------------------------|
---------------------------|
---------------------------|
-----2-3-2-1---------------|
-2-3---------3-2-----------|
---------------------------|




Chorus Riff:
-------------------------------------------------------------------------------|
-------------------------------------------------------------------------------|
-------------------------------------------------------------------------------|
-9-----9-----9-7-5-----5-----5-7-8-----8-----8---------------------------------|
-77777-77777-7-5-33333-33333-3-5-66666-66666-6-8-7-----7-----7-----------------|
-----------------------------------------------6-55555-55555-5-----------------|
  pppp  pppp      pppp  pppp      pppp  pppp      pppp  pppp

-------------------------------------------------------------------------------|
-------------------------------------------------------------------------------|
-------------------------------------------------------------------------------|
-9-----9-----9-5-8-----6-----8-------------------------------------------------|
-77777-77777-7-3-66666-66666-6-8-7-----7-----7-8-7-----7-----7-----------------|
-------------------------------6-55555-55555-5-6-55555-55555-5-----------------|
  pppp  pppp      pppp  pppp      pppp  pppp      pppp  pppp




Pre Solo Riff:
-------------------------------------------------------------------------------|
-------------------------------------------------------------------------------|
-------------------------------------------------------------------------------|
-------------------------------------------------------------------------------|
-------------7-6-------------8-7-6-----------7-6-------------7-8---------------|
-0-0000000-5-----0-0000000-5-------0000000-5-----0-0000000-5-----8-------------|
 p ppppppp       p ppppppp         ppppppp       p ppppppp

-------------------------------------------------------------------------------|
-------------------------------------------------------------------------------|
-------------------------------------------------------------------------------|
-------------------------------------------------------------------------------|
-------------7-6-------------8-7-6-----------7-6-------------7-8---------------|
---0000000-5-----0-0000000-5-------0000000-5-----0-0000000-5-----8-------------|
   ppppppp       p ppppppp         ppppppp       p ppppppp

-------------------------------------------------------------------------------|
-------------------------------------------------------------------------------|
-------------------------------------------------------------------------------|
-------------------------------------------------------------------------------|
-------------7-6-------------8-7-6-----------7-6-------------7-8---------------|
---0000000-5-----0-0000000-5-------0000000-5-----0-0000000-5-----8-------------|
   ppppppp       p ppppppp         ppppppp       p ppppppp

-------------------------------------------------------------------------------|
-------------------------------------------------------------------------------|
-------------------------------------------------------------------------------|
-------------------------------------------------------------------------------|
-------------7-6-------------8-7-6-----------7-6-------------7-8---------------|
---0000000-5-----0-0000000-5-------0000000-5-----0-0000000-5-------------------|
   ppppppp       p ppppppp         ppppppp       p ppppppp




Solo Riff:
-------------------------------------------------------------------------------|
-------------------------------------------------------------------------------|
-------------------------------------------------------------------------------|
-9-----------9-7-5-----------5-7-8----------8----------------------------------|
-7-----------7-5-3-----------3-5-6----------6-8-7------------------------------|
----------------------------------------------6-5------------------------------|
   let ring        let ring        let ring       let ring

-------------------------------------------------------------------------------|
-------------------------------------------------------------------------------|
-------------------------------------------------------------------------------|
-9-----------9-5-8-----------8-------------------------------------------------|
-7-----------7-3-6-----------6-8-7-----------7-8-7-----------------------------|
-------------------------------6-5-----------5-6-5-----------------------------|
   let ring        let ring        let ring        let ring

-------------------------------------------------------------------------------|
-------------------------------------------------------------------------------|
-------------------------------------------------------------------------------|
-9-----------9-7-5-----------5-7-8----------8----------------------------------|
-7-----------7-5-3-----------3-5-6----------6-8-7------------------------------|
----------------------------------------------6-5------------------------------|
   let ring        let ring        let ring       let ring

-------------------------------------------------------------------------------|
-------------------------------------------------------------------------------|
-------------------------------------------------------------------------------|
-9-----------9-5-8-----------8-------------------------------------------------|
-7-----------7-3-6-----------6-8-7-----------7-8-7-----------------------------|
-------------------------------6-5-----------5-6-5-----------------------------|
   let ring        let ring        let ring        let ring




Verse 3 riffs:
-------------------------------------------------------------------------------|
-------------------------------------------------------------------------------|
-------------------------------------------------------------------------------|
----------------------------------------2h3p2-----4-5-----3--------------------|
----------7654----------2321----------23----------2-3-----1--------------------|
-0-000000------0-000000------0-000000---------0-0-----0-0----------------------|
 p pppppp      p pppppp      p pppppp         p p     p p

-------------------------------------------------------------------------------|
-------------------------------------------------------------------------------|
-------------------------------------------------------------------------------|
----------------------------------------2h3p2-----8-------5-------3------------|
----------7654----------2321----------23----------6-------3-------1-------3--2-|
-0-000000------0-000000------0-000000---------0-0-----0-0-----0-0-----0-0-1--0-|
 p pppppp      p pppppp      p pppppp         p p     p p     p p     p p




pre chorus fill:
---------------------------|
---------------------------|
---------------------------|
-----2-3-2-1---------------|
-2-3---------3-2-----------|
---------------------------|




Chorus Riff:
-------------------------------------------------------------------------------|
-------------------------------------------------------------------------------|
-------------------------------------------------------------------------------|
-9-----9-----9-7-5-----5-----5-7-8-----8-----8---------------------------------|
-77777-77777-7-5-33333-33333-3-5-66666-66666-6-8-7-----7-----7-----------------|
-----------------------------------------------6-55555-55555-5-----------------|
  pppp  pppp      pppp  pppp      pppp  pppp      pppp  pppp

-------------------------------------------------------------------------------|
-------------------------------------------------------------------------------|
-------------------------------------------------------------------------------|
-9-----9-----9-5-8-----6-----8-------------------------------------------------|
-77777-77777-7-3-66666-66666-6-8-7-----7-----7-8-7-----7-----7-----------------|
-------------------------------6-55555-55555-5-6-55555-55555-5-----------------|
  pppp  pppp      pppp  pppp      pppp  pppp      pppp  pppp



Outro riff:
-------------------------------------------------------------------------------|
-------------------------------------------------------------------------------|
-------------------------------------------------------------------------------|
-----8-----5-----3-----------2-3-2-1-------------------------------------------|
-----6-----3-----1-----3-2-3---------3-2--2------------------------------------|
-0-0---0-0---0-0---0-0-1------------------0------------------------------------|
 p p   p p   p p   p p
Добавлено: 06.10.2013
Другие материалы по этой песне:
  • Аккорды и текст

Страница создана 06.10.2013
http://primanota.ru/tankard/galow-chords.htm
Привет, Гость.
Предлагаем пройти революционный курс по гитаре.
Подарок от PrimaNota.Ru, забирай!