PrimaNota.ru - самый крупный в мире бесплатный архив песенных текстов, аккордов, табулатур и нот


Tank - Heavy Artillery - таба, видео

Регистрация Запомнить меня
Войти через:  Facebook Google Twitter Vk Yandex Mail.ru

Tank - Heavy Artillery - таба, видео

Печатать
Просмотров: 150
-------------------------------------------------------------------------------
                             Heavy Artillery - Tank
-------------------------------------------------------------------------------
Tabbed by: Rick M
Email:rickmorin89@gmail.com


Heavy Artillery by Tank
Tuning: Standard E

Intro:

e|---------------------------------------------------------------------------|
B|---17------15------13------10----------------------------------------------|
G|---19b21---17b19---15b17---12b14-------------------------------------------|
D|---------------------------------------------------------------------------|
A|---------------------------------------------------------------------------|
E|----------------------------------3-0-3-0-3--------------------------------|



Verse:

e|---------------------------------------------------------------------------|
B|---------------------------------------------------------------------------|
G|-----------------------------------------------------7-6-------------------|
D|---7/-9-99---7/-9-99---7-9-7-99-------5-5-55---7-77--5-4-------------------|
A|---5/-7-77---5/-7-77---5-7-5-77-------5-5-55---5-55------------------------|
E|--------------------------------------3-3-33-------------------------------|

e|---------------------------------------------------------------------------|
B|---------------------------------------------------------------------------|
G|--------------------------------------5-5-55-------------------------------|
D|---7/-9-99---7/-9-99---7-9-7-99-------5-5-55---7-5-4---5-4-----------------|
A|---5/-7-77---5/-7-77---5-7-5-77-------3-3-33---------5-----5---------------|
E|---------------------------------------------------------------------------|


Bridge:

e|---------------------------------------------------------------------------|
B|---------------------------------------------------------------------------|
G|---5555555555---------7------------7-6-------------------------------------|
D|---5555555555--33-22--7----8-7-77--5-4-------------------------------------|
A|---3333333333---------5----------------------------------------------------|
E|------------------------555------------------------------------------------|

e|---12----------------------------------------------------------------------|
B|---15b17-------------------------------------------------------------------|
G|---------------------------------------------------------------------------|
D|---------------------------------------------------------------------------|
A|---------------------------------------------------------------------------|
E|---------------------------------------------------------------------------|

Chorus: exactly like verse









Solo:

e|---------------------------------------------------------------------------|
B|---------------------------------------------------------------------------|
G|-----------------------------9----9—11b13b11----------9--------------------|
D|-------7--979----9/11-9-11-9---11------------------11---11-9-7-9-11-9------|
A|---979--------9------------------------------------------------------------|
E|---------------------------------------------------------------------------|

e|---------------------------------------------------------------------------|
B|---------------------------------------------------------------------------|
G|-----------------------------9----9-11b13b11----------9--------------------|
D|-------7--979----9/11-9-11-9---11------------------11---11-9-7-9-11-9--10--|
A|---979--------9------------------------------------------------------------|
E|---------------------------------------------------------------------------|



Break and End:

e|---------------------------------------------------------------------------|
B|15b17-15b17-15b17-15b17-15b17-15b17-15b17-15b17-15b17-15b17-15b17-15b17----|
G|---------------------------------------------------------------------------|
D|---------------------------------------------------------------------------|
A|---------------------------------------------------------------------------|
E|---------------------------------------------------------------------------|


************************************

| /   slide up
| \   slide down
| h   hammer-on
| p   pull-off
| ~   vibrato
| +   harmonic
| x   Mute note
| b   Bend
| pb  Pre-bend
| br  Bend release
| pbr Pre-bend release
| brb Bend release bend

************************************

Добавлено: 20.04.2012
Другие материалы по этой песне:
  • Аккорды и текст

Страница создана 20.04.2012
http://primanota.ru/tank/heavy-artillery-chords.htm
Привет, Гость.
Предлагаем пройти революционный курс по гитаре.
Подарок от PrimaNota.Ru, забирай!