PrimaNota.ru - самый крупный в мире бесплатный архив песенных текстов, аккордов, табулатур и нот


Tancred - Lion Hands - таба, видео

Регистрация Запомнить меня
Войти через:  Facebook Google Twitter Vk Yandex Mail.ru

Tancred - Lion Hands - таба, видео

Печатать
Просмотров: 104
Lion Hands // Tancred

Tuning: EAC#F#Be


(Fades in)

 e|---0-----0----|
 B|---0-----0----|
F#|---2-----2----|
C#|---3-----0----|
 A|---0-----0----|
 E|---0-----0----|


(x12)?

 e|------------------------------------------------|
 B|----0--------0--------0--------0----------------|
F#|-------2--------2--------2--------2-------------|
C#|--3-------3--------2--------2-------------------|
 A|------------------------------------------------|
 E|------------------------------------------------|


(x8)

 e|---0-----0----|
 B|---0-----0----|
F#|---2-----2----|
C#|---3-----0----|
 A|---0-----0----|
 E|---0-----0----|


(x5)                                                 (end)
                                           
 e|------------------------------------------------|-------|
 B|----0-----0-----0-----0-----0-----0-----0-----0-|-------|
F#|-------2-----------2-----------2-----------2----|-------|
C#|-3-----------3-----------2-----------2----------|---2---|
 A|------------------------------------------------|-------|
 E|------------------------------------------------|-------|
Добавлено: 23.07.2015
Другие материалы по этой песне:
  • Аккорды и текст

Страница создана 23.07.2015
http://primanota.ru/tancred/lion-hands-chords.htm
Привет, Гость.
Предлагаем пройти революционный курс по гитаре.
Подарок от PrimaNota.Ru, забирай!