PrimaNota.ru - самый крупный в мире бесплатный архив песенных текстов, аккордов, табулатур и нот


Tammany Hall Nyc - Summer Song - таба, видео

Регистрация Запомнить меня
Войти через:  Facebook Google Twitter Vk Yandex Mail.ru

Tammany Hall Nyc - Summer Song - таба, видео

Печатать
Просмотров: 110
Уроки эстрадного вокала в Санкт-Петербурге
This is off the Getawayland album by Tammany Hall NYC  It was written
by Stephen O'Reilly and played on an acoustic guitar.  All songs by
THNYC, including this one, are available to download for free on
their website:  www.glassrecords.com/glassrecords.html
 
Lip, face, shrug, lip+face combo,
face, double face, backside switch face fakey
     By: Ben Masselink
 
 
h  = hammer on
p  = pull off
v  = down strum
^  = up strum
rb = release bend (bend the note prior to hitting it and then release)
~~ = Vibrato
/ \= slide up and down
 
                 Summer Song
             By Tammany Hall NYC
 
Intro:
 
  C              Dsus/F#    Am  v  v ^  G              F   v  v ^
|-------------------------------0--0-0---------------------1--1-1--
|-----1h3p1---1------3p1--------1--1-1---------------------1--1-1--
|-------------------------------2--2-2------2h4p2---2------2--2-2--
|-----------2-------------------2--2-2------------5--------3--3-3--
|-3-3------------2-2-----2--0-0----------------------------3--3-3--
|---------------------------------------3-3------------1-1-1--1-1^×
 
  G              C
|--------------------0--0-0-----------------|
|--------------------1--1-1-----------------|
|-----2h4p2---2------0--0-0-----------------|  x2
|-----------5--------2--2-2----------3-2-0--|
|----------------3-3-3--3-3----0-2-3--------|
|-3-3------------------------3--------------|
 
 
Verse: (Almost the same as the intro)
 
  C              Dsus/F#    Am  v  v ^  G              F   v  v ^
|-------------------------------0--0-0---------------------1--1-1--
|-----1h3p1---1------3p1--------1--1-1---------------------1--1-1--
|-------------------------------2--2-2------2h4p2---2------2--2-2--
|-----------2-------------------2--2-2------------5--------3--3-3--
|-3-3------------2-2-----2--0-0----------------------------3--3-3--
|---------------------------------------3-3------------1-1-1--1-1^×
 
                             ________________   _____________________
  G              C                      x2  |   3rd time (last time) |
|--------------------0--0-0-----------------|------------------------|
|--------------------1--1-1-----------------|------------------------|
|-----2h4p2---2------0--0-0-----------------|----strum a C chord-----|
|-----------5--------2--2-2----------3-2-0--|-----for a measure------|
|----------------3-3-3--3-3----0-2-3--------|------------------------|
|-3-3------------------------3--------------|------------------------|
 
Chorus: (listen to song for timing)
 
 First Part:                             ________________
F, G(pattern is below), C, E (same type of pattern as G) |
     v v v     v ^                                       |
    -3-3-3-----3-3-                                      |
    -3-3-3h5p3-3-3-                                      | x3 then...
    -4-4-4-----4-4-                                      |
    -5-5-3-----5-5-                                      |
    -5-5-5-----5-5-                                      |
    -3-3-3-----3-3-                       _______________|
 
 Second Part:
F, G(w/same pattern above), C (same as ending of Intro seen below)
                          ------0--0-0-----------------|
                          ------1--1-1-----------------|
                          ------0--0-0-----------------|
                          ------2--2-2----------3-2-0--|
                          --3-3-3--3-3----0-2-3--------|
                          --------------3--------------|
 
Verse
 
Chorus
 
Solo:
 
|--rb12p10-12-10------------rb12p10-12-10-----------rb12p10-12-10---------------
|----------------13-10-13-----------------13-10-13----------------13-10-13-13~~-
|-------------------------------------------------------------------------------
|-------------------------------------------------------------------------------
|-------------------------------------------------------------------------------
|-------------------------------------------------------------------------------
 
|--rb12p10-12-10--------------------8--------|
|----------------13-10-13-13~~--5/8---5---5--|
|---------------------------------------7----|
|--------------------------------------------|
|--------------------------------------------|
|--------------------------------------------|
 
Verse: (play once through with 2nd ending)
 
Chorus:
   Play with the normal First Part for 3 times, but then a slightly
different Second Part for 1 time:
 
F, G(w/same pattern above), C
                          ------0--0-0--------------------------|
                          ------1--1-1--------------------------|
                          ------0--0-0---then strum a C chord---|
                          ------2--2-2------for a measure-------|
                          --3-3-3--3-3--------------------------|
                          --------------------------------------|
 
Ending: (Same as chorus above, but end on ONE strum from the C chord)
 
 
Well, that^Òs it.  If you have any questions, comments, or corrections,
please email me at benmassel@hotmail.com.
Thanks a bunch!
 
 
     
Добавлено: 06.07.2013
Другие материалы по этой песне:
  • Аккорды и текст

Страница создана 06.07.2013
http://primanota.ru/tammany-hall-nyc/summer-song-chords.htm
Привет, Гость.
Предлагаем пройти революционный курс по гитаре.
Подарок от PrimaNota.Ru, забирай!