PrimaNota.ru - самый крупный в мире бесплатный архив песенных текстов, аккордов, табулатур и нот


Tamia - Sandwich And A Soda - бас-таба, видео

Регистрация Запомнить меня
Войти через:  Facebook Google Twitter Vk Yandex Mail.ru

Tamia - Sandwich And A Soda - бас-таба, видео

Печатать
Просмотров: 101
----------------------------------------------------------------------------
                      Sandwich And A Soda - Tamia
----------------------------------------------------------------------------
Tabbed by: Chris Raw 

Tuning: Standard     BPM: 132
                                                                    ___
G|----3-----------------------------------------------------------|    |
D|----------------1-1-----3-3-----0-0-------------1---1---3---3-4-|    |
A|1-1---------0-1---------------------------0-1-------------------|    |
E|----------------------------------------------------------------|    |
                                                                       |
G|--------3-----------3---------------3---------------------------|    |
D|5-5-------3-----1-1-----------------------------1-1---------3---|    |
A|------------0-1-------------3-2-1-1---------0-1---------1-3-----|    |
E|------------------------1-1-------------------------------------|    |
                                                                       |=== Verse
G|----------------------------------------------------------------|    |
D|3-4-5-----------1-1-----3-3-----0-0-------------1---1---3---3-4-|    |
A|------------0-1---------------------------0-1-------------------|    |
E|----------------------------------------------------------------|    |
                                                                       | 
G|--------3-----------3---------------3---------------------------|    |
D|5-5-------3-----1-1-----------------------------1-1---------3---|    |
A|------------0-1-------------3-2-1-1---------0-1---------1-3-----|    |
E|------------------------1-1-------------------------------------| ___|

                                                                    ___
G|----------------------------------------3h5-3-------------------|    |
D|3-4-5---5h7-5---1-1-----3-3-----0-0-------------1---1---3---3-4-|    |
A|----------------------------------------------------------------|    |
E|----------------------------------------------------------------|    |
                                                                       |=== Chorus 
G|--------------------3---------------3---5h7-5-------------------|    |
D|5-5-----3h5-----1-1-----------------------------1-1---------3---|    |
A|----------------------------3-2-1-1---------------------1-3-----|    |
E|------------------------1-1-------------------------------------| ___|


| /  slide up
| \  slide down
| h  hammer-on
| p  pull-off
| ~  vibrato
| +  harmonic
| x  Mute note
Добавлено: 17.05.2016
Другие материалы по этой песне:
  • Аккорды и текст

Страница создана 17.05.2016
http://primanota.ru/tamia/sandwich-and-a-soda-chords.htm
Привет, Гость.
Предлагаем пройти революционный курс по гитаре.
Подарок от PrimaNota.Ru, забирай!