PrimaNota.ru - самый крупный в мире бесплатный архив песенных текстов, аккордов, табулатур и нот


Tame Impala - Past Life - таба, видео

Регистрация Запомнить меня
Войти через:  Facebook Google Twitter Vk Yandex Mail.ru

Tame Impala - Past Life - таба, видео

Печатать
Просмотров: 39
Авторы музыки: Kevin Parker
Авторы текста: Kevin Parker
-------------------------------------------------------------------------------
                             PAST LIFE - Tame Impala
-------------------------------------------------------------------------------
Tabbed by: markiiitu
E-mail: marcolucio27@gmail.com

Tuning: Dropped D

e|----3-1----------3-1----------|------------0-1----------1-3--|
B|--------4-3-4--------4-3-4----|--------3-4----------3-4------|
G|--------------3------------5--|----3-5----------3-5----------|
D|------------------------------|------------------------------|
A|--1---------------------------|--3---------------------------|
E|------------------------------|------------------------------|

************************************

| /   slide up
| \   slide down
| h   hammer-on
| p   pull-off
| ~   vibrato
| +   harmonic
| x   Mute note
| b   Bend
| pb  Pre-bend
| br  Bend release
| pbr Pre-bend release
| brb Bend release bend

************************************
Добавлено: 11.04.2016
Другие материалы по этой песне:
  • Аккорды и текст

Страница создана 11.04.2016
http://primanota.ru/tame-impala/past-life-chords.htm
Привет, Гость.
Предлагаем пройти революционный курс по гитаре.
Подарок от PrimaNota.Ru, забирай!