PrimaNota.ru - самый крупный в мире бесплатный архив песенных текстов, аккордов, табулатур и нот


Tallhart - Drunk Kids - таба, видео

Регистрация Запомнить меня
Войти через:  Facebook Google Twitter Vk Yandex Mail.ru

Tallhart - Drunk Kids - таба, видео

Печатать
Просмотров: 76
-------------------------------------------------------------------------------
                             SONG NAME - Band Name
-------------------------------------------------------------------------------
Tabbed by: Alaina Thomas
E-mail: alainathomas8@gmail.com

Tuning: Standard

e|---------------------------------------------------------------------------|
B|---------5---------------7----5-----------------0----------------0---------|
G|-----6-------6------6-----------------------6--------6------6---------6----|
D|-------7---7---7------7-----7---7---------0---0---0-----0-0---0----0-------|
A|---0-------------0---------------------------------------------------------|
E|---------------------------------------------------------------------------|

This is basically just the intro and verses, I'm not sure about the chorus.

************************************

| /   slide up
| \   slide down
| h   hammer-on
| p   pull-off
| ~   vibrato
| +   harmonic
| x   Mute note
| b   Bend
| pb  Pre-bend
| br  Bend release
| pbr Pre-bend release
| brb Bend release bend

************************************
Добавлено: 04.10.2015
Другие материалы по этой песне:
  • Аккорды и текст

Страница создана 04.10.2015
http://primanota.ru/tallhart/drunk-kids-chords.htm
Привет, Гость.
Предлагаем пройти революционный курс по гитаре.
Подарок от PrimaNota.Ru, забирай!