PrimaNota.ru - самый крупный в мире бесплатный архив песенных текстов, аккордов, табулатур и нот


Tallest Man On Earth - Where I Thought I Met The Angels - таба, видео

Регистрация Запомнить меня
Войти через:  Facebook Google Twitter Vk Yandex Mail.ru

Tallest Man On Earth - Where I Thought I Met The Angels - таба, видео

Печатать
Просмотров: 147
Уроки эстрадного вокала в Санкт-Петербурге
The Tallest Man On Earth - Where I Thought I Met The Angels

capo 6th fret
low-e to d

Intro/after chorus:  picked
       G
d|-----0-0-0-0------------------------------------|
B|-0---3-3-3-0----(repeat last part)--------------|
G|-0---0-0-0---0----------------------------------|
D|-0-------------0--------------------------------|
A|-2----------------------------------------------|
E|-3---3-3-3-3------------------------------------|

verse

d|-0----0---0-0--0--------------------|
B|-3----1p3-3-3--1p3------------------|
G|-4----0---0-0--0--------------------|
D|-4----2---0-0--2--------------------|
A|-2----3---2-0--3--------------------|
E|----------3-2-----------------------|

before chorus

d|-0----0---0-0--0--0---0-------------|
B|-3----1p3-3-3--1--0p3-0p3-----------|
G|-4----0---0-0--0--0---0-------------|
D|-4----2---0-0--2--2---2-------------|
A|-2----3---2-0--3--3---3-------------|
E|----------3-2-----------------------|

Never once an ocean
could hold me on its shore
standing calm with all its motion
with all the movement of its flow
cause I know way back in the distance
all the safer sorrows burned
the ones with no intent to drown you
the ones where nothin's to be learned

chorus
d|-0----0---0-0-0---0--0---0--0--0--0--0-----|
B|-3----1p3-0-0-0---0--1---3--1--3--3--3-----|
G|-4----0---0-0-0---0--0---4--0--0--0--0-----|
D|-4----2---0-0-0---0--2---4--2--0--0--0-----|
A|-2----3---0-0-0---2--3---2--3--2--0--2-----|
E|----------0-2-3----------------3--2--3-----|

so now i'm headin' down a back road
the one that no one really takes
'cept for me now to be nowhere
when that early morning breaks

play last part of the intro once

Now I'm dancin' with the mad girls
the ones who sin out by the town
who were brought up by bell towers
and always nurtured by its sound
I heard them sing out in their language
already when I was still free
oh God I thought I heard the angels
what kind of fool'd you put in me?

'Cause now I'm tied by up by a back road, y'know
the one that no one really takes
'cept for me now to be nowhere
when that early morning breaks

They sure won't let me leave this summer
no no no
and they won't let me go this fall
and with the likelihood of winter
they'll take the heat out of us all
just to deliver all their daughters
to track down sons of serpent roads
and let me look out over slaughter
to have a night out with the boys

And now i'm takin' off the back road, y'know
the one that no one really takes
'cept for me now to be nowhere
when that early morning breaks

end on G
Добавлено: 10.05.2012
Другие материалы по этой песне:

Страница создана 10.05.2012
http://primanota.ru/tallest-man-on-earth/where-i-thought-i-met-the-angels-chords.htm
Привет, Гость.
Предлагаем пройти революционный курс по гитаре.
Подарок от PrimaNota.Ru, забирай!