PrimaNota.ru - самый крупный в мире бесплатный архив песенных текстов, аккордов, табулатур и нот


Tallest Man On Earth - These Days - таба, видео

Регистрация Запомнить меня
Войти через:  Facebook Google Twitter Vk Yandex Mail.ru

Tallest Man On Earth - These Days - таба, видео

Печатать
Просмотров: 70
-------------------------------------------------------------------------------
                       THESE DAYS - The Tallest Man on Earth
-------------------------------------------------------------------------------
Tabbed by: SmallestMOE

Tuning: EADGBe

I tried to tab this song, which is a cover from the Tallest man on earth of a
song called "These days" from Jackson Browne.

You can hear this song at this link :
http://www.youtube.com/watch?v=5Wvkt6R39pw

I think the chords are right.
For the picking pattern, this is some kind of travis picking, a lot ask for a tab
of this song, and nobody seems to provide one so i tried my best but it's
probably wrong.

Anyway, there is 2 parts in the song + outro.

Standard Tuning
Capo 7 :

Part 1:

   C       G6sus4      Am       Am/G       F
e|--------------------------------------------------------------------0------|
B|1-----------1--------1----------1--------1-----------1--------0h1----------|
G|------0-----------0--------2----------2--------2-----------2--------------2|
D|---2-----------0--------2----------2--------3-----------3--------3-----3---|
A|3--------2-----------0-----------------------------------------------------|
E|------------------------------3----------1--------1-----------1------------|


Part 2 : (I know, technically, it's not a G6 but i couldn't find the name of this chord.)

  Em                   Em7
e|---------------------0------------------------------------------|
B|0-----------0---------------------3--------3-----------3--------|
G|------0-----------0---------0-----------0--------0-----------0--|
D|---2-----------2---------2-----------2--------2-----------2-----|
A|---------------------0---------0-----------0--------0-----------|
E|0--------0------------------------------------------------------|

  F                                                                 G6
e|-------------------------------------------------------------------------------------|
B|1-----------1---------1-----------1--------1-----------1----------1-----------1------|
G|------2-----------0h2-------2-----------2--------2-----------0h2--------0-----------0|
D|---3-----------3---------3-----------3--------3-----------3----------0-----------0---|
A|-------------------------------------------------------------------------------------|
E|1--------1------------1--------1-----------1--------1-------------3--------3---------|

                                                                   F
e|3p0----------------------------------------------------------------------------------|
B|-------------1--------1p0----------0--------1p0---------0--------1-----------1-------|
G|-------0-----------0---------0-----------0---------0----------0--------2-----------2-|
D|----0-----------0---------0-----------0---------0----------0--------3-----------3----|
A|-------------------------------------------------------------------------------------|
E|3---------3-----------3---------3-----------3---------3----------1--------1----------|

                                             G6                   F
e|-------------------------------------------------------------------------------------|
B|1-----------1--------0h1----------1--------1-----------1--------1-----------1--------|
G|------2-----------2---------2-----------2--------0-----------0--------2-----------2--|
D|---3-----------3---------3-----------3--------0-----------0--------3-----------3-----|
A|-------------------------------------------------------------------------------------|
E|1--------1-----------1---------1-----------3--------3-----------1--------1-----------|


e|----------------------------------------|
B|1p0---------1--------1-----------1------|
G|------0-----------0--------0-----------0|
D|---3-----------3--------3-----------3---|
A|----------------------------------------|
E|1--------1-----------1--------1---------|



Outro :

  Em                   Em7
e|---------------------0--------------------------------------------|
B|0-----------0---------------------3--------3-----------3----------|
G|------0-----------0---------0-----------0--------0-----------0----|
D|---2-----------2---------2-----------2--------2-----------2-------|
A|---------------------0---------0-----------0--------0-------------|
E|0--------0--------------------------------------------------------|

  F
e|------------------------------------------------------------------|
B|1-----------1---------1-----------1--------0-----------0----------|
G|------2-----------0h2-------2-----------2--------2-----------0----|
D|---3-----------3---------3-----------3--------3-----------3-------|
A|------------------------------------------------------------------|
E|1--------1------------1--------1-----------1--------1-------------|

  Cm7/G                                     C6/G                     G6
e|-----------------------------------------------------------------------------------|
B|5-----------5--------5-----------5--------0h1----------1--------1-----------1------|
G|------4-----------4--------4-----------4---------0-----------0--------0-----------0|
D|---5-----------5--------5-----------5---------2-----------2--------0-----------0---|
A|3--------3-----------3--------3----------------------------------------------------|
E|------------------------------------------3---------3-----------3--------3---------|

Final Chord :

   C
e|-0-|
B|-1-|
G|-0-|
D|-2-|
A|-3-|
E|-0-|


It goes like this :


(Part 1) Well I've been out walking
(Part 1)I don't do that much talking these days
(Part 2)(Em)These (Em7)days
(F)These days I seem to think a lot
About the things that I forgot(G6) to do
And all the times I had the chance to(F,G6,F)

Then intro (once or twice) between each verse.
And finally outro after last verse.
It's the same progression during every verse.


Lyrics :

Well I've been out walking
I don't do that much talking these days
These days-
These days I seem to think a lot
About the things that I forgot to do
For you
And all the times I had the chance to

And I had a lover
It's so hard to risk another these days
These days-
Now if I seem to be afraid
To live the life I have made in song
Well it's just that I've been losing so long

I'll keep on moving
Things are bound to be improving these days
These days-
These days I sit on corner stones
And count the time in quarter tones to ten, my friend
Don't confront me with my failures
I had not forgotten them


Enjoy :)


************************************

| /   slide up
| \   slide down
| h   hammer-on
| p   pull-off
| ~   vibrato
| +   harmonic
| x   Mute note
| b   Bend
| pb  Pre-bend
| br  Bend release
| pbr Pre-bend release
| brb Bend release bend

************************************
Добавлено: 25.02.2014
Другие материалы по этой песне:
  • Аккорды и текст

Страница создана 25.02.2014
http://primanota.ru/tallest-man-on-earth/these-days-chords.htm
Привет, Гость.
Предлагаем пройти революционный курс по гитаре.
Подарок от PrimaNota.Ru, забирай!