PrimaNota.ru - самый крупный в мире бесплатный архив песенных текстов, аккордов, табулатур и нот


Tallest Man On Earth - Little Nowhere Town - таба, видео

Регистрация Запомнить меня
Войти через:  Facebook Google Twitter Vk Yandex Mail.ru

Tallest Man On Earth - Little Nowhere Town - таба, видео

Печатать
Просмотров: 115
Уроки эстрадного вокала в Санкт-Петербурге
This is a first version of The Tallest man on earth's "Little nowhere town" from his new album. I have not seen 
any other tab for this song, but i have seen some piano and guitar covers. This tab is pretty much based from 
this cover https://www.youtube.com/watch?v=FYIChBKyZmQ. I picked out the notes she plays on her right hand on
the intro and change them to guitar tab. I know it's far from perfect so pleas comment if you have any
suggestions or corrections on this tab.


This is my first tab, so i am not really used to putting the numbers in the right "rhythm".

Standard Tuning.

You can also E-mail any suggestions to: Lunus@live.se

Thanks for checking it out.


e|-------------------------------------------------------------------------------------------------3------3----|
B|-------------------------------------------------------------------------------------------------------------|
G|---0----2-----4-----5---4-----2----4---0-----4----2----0------0------2-----4-----2-----------0-------0-------|
D|----------------------------------------------------------4--------------------------------------------------|
A|-------------------------------------------------------------------------------------------------------------|
E|-------------------------------------------------------------------------------------------------------------|


e|------3--------------------------------------------------------------------|
B|------------5----3---5-----------------------------------------------------|
G|---0--------------------4---2-----0---4-----0----4-----2------0------0-----|
D|-----------------------------------------------------------------4---------|
A|---------------------------------------------------------------------------|
E|---------------------------------------------------------------------------|

e|------------------------------------------------------------------------------------------------|
B|------------------------------------------------------------------------------------------------|
G|----2----4-----5---0--------0----0----2---4---5---4--4--4-----0---4-----0---2----------0--------|
D|--------------------------4------------------------------------------4----------4---------------|
A|------------------------------------------------------------------------------------------------|
E|------------------------------------------------------------------------------------------------|

e|------------3-------3-----3------------------------------------------------------------|
B|--------------------------------5----3-------------------------------------------------|
G|----0---------0-------0------------------4----2---0---4-----0-----4---2-----4---2------|
D|---------------------------------------------------------------------------------------|
A|---------------------------------------------------------------------------------------|
E|---------------------------------------------------------------------------------------|

e|---------------------------------------------------------------------------|
B|---------------------------------------------------------------------------|
G|----0--------0---2----4---5----0----------0--------------------------------|
D|----------4--------------------------4-------------------------------------|
A|---------------------------------------------------------------------------|
E|---------------------------------------------------------------------------|
Добавлено: 18.09.2015
Другие материалы по этой песне:
  • Аккорды и текст

Страница создана 18.09.2015
http://primanota.ru/tallest-man-on-earth/little-nowhere-town-chords.htm
Привет, Гость.
Предлагаем пройти революционный курс по гитаре.
Подарок от PrimaNota.Ru, забирай!