PrimaNota.ru - самый крупный в мире бесплатный архив песенных текстов, аккордов, табулатур и нот


Taller Para Ninos - Mariposa Tecnicolor - таба, видео

Регистрация Запомнить меня
Войти через:  Facebook Google Twitter Vk Yandex Mail.ru

Taller Para Ninos - Mariposa Tecnicolor - таба, видео

Печатать
Просмотров: 41
INTRO

e|--------------------------------------------------------------------
B|--------------------------------------------------------------5-----
G|----10-------10--------7-------5--------3--------3--------5-----5---
D|--10--10---10--10----7---7---5---5----3---3----3---3----5---5-----5-
A|-8--------7--------5-------3--------1--------0--------3-------------
E|--------------------------------------------------------------------

e|-----------------------------------------------------------
B|-----------------------------------------------------------
G|-----10-------10--------7--------5--------3--------3----5--
D|---10--10---10--10----7---7----5---5----3---3----3---3--5--
A|--8--------7--------5--------3--------1--------0--------3--
E|-----------------------------------------------------------

e|---------------------------
B|---------------------------
G|---------------------------
D|--3--2--0------------------
A|-----------3--1--0---------
E|--------------------3--1---

F5   A#5  C5

F5                    C5
Todas las mañanas que viví
          A#5               C5
Todas las calles donde me escondí
A#5                     C5
El encantamiento de una flor
                     F5
El sacrificio de mis padres
                  A#5   C5
Los zapatos de charol

F5                 C5
Los domingos en el club
           A#5                  C5
Salvo que Cristo sigue ahí en la cruz.
A#5                 C5
Las columnas de la catedral
                    F5                      A#5    C5
Y la tribuna grita gol el lunes por la capital.

F5            C5
Todos giran y giran
A#5          C5
Todos bajo el sol
F5             C5
Se proyecta la vida
A#5         C5
Mariposa tecnicolor
F5              C5
Cada vez que me miras
A#5     C5
Cada sensación
F5             C5
Se proyecta la vida
A#5          C5
Mariposa tecnicolor.

F5   A#5   C5   A#5   C5

F5                   C5
Vi sus caras de resignación
        A#5              C5
Lo vi felices llenos de dolor
A#5                  C5
Ellas cocinaban el arroz
                     F5                     A#5    C5
Se levantaba los principios de su Tío emperador
F5                C5
Todo al fin se sucedió
             A#5             C5
Solo que el tiempo no nos espero
A#5               C5
La melancolía de morir en este mundo
    F5                     A#5   C5
Y vivir sin una estúpida razón.

F5            C5
Todos giran y giran
A#5          C5
Todos bajo el sol
F5             C5
Se proyecta la vida
A#5         C5
Mariposa tecnicolor
F5              C5
Cada vez que me miras
A#5     C5
Cada sensación
F5             C5
Se proyecta la vida
A#5          C5
Mariposa tecnicolor.

A#5     C5        F5
Yo te conozco de antes
A#5         C5   F5
Desde antes del ayer
A#5     C5       D5
Yo te conozco de antes
          A#5         C5
Cuando me fui no me aleje..
A#5      C5     F5
Llevo la voz cantante
A#5       C5     F5
Llevo La luz del tren
A#5        C5     D5
Llevo un estilo errante
           A#5         C5
Llevo tus marcas en mi piel
  A#5          C5      F5
Y hoy solo te vuelvo a ver
  A#5          C5      F5
Y hoy solo te vuelvo a ver
  A#5          C5
Y hoy solo te vueeelvo a veeer..
*SE SIGUE EL RITMO DE CUALQUIER VERSO

(1ª parte del requinto)
e|---------------------------------------------------------
B|---------------------------------------------------------
G|---------------------------------------------------------
D|-10-10-10-10-10-8-7-8------7-8-10-8-7--------------------
A|----------------------8-10------------10--8--7-----------
E|---------------------------------------------------------

(2ª parte del requinto)
e|--------------------------------------------------------------------
B|--------------------------------------------------------------------
G|--------------------------------------------------------------------
D|--8-8-8-8-8-7----------------------8-7-7-7-8-10-8-7-----------------
A|--------------10-8-7-7-7---------7------------------10-8-10/12-13---
E|-------------------------10-8-10------------------------------------


*SIGUEN LAS MISMAS NOTAS PERO CON DIFERENTE RITMO

(3ª parte del requinto)
e|-------------------------------------------
B|-------------------------------------------
G|-----10-7---------7------------------------
D|--10------10-9-10------7-8-10-8-7----------
A|--------------------10------------10-8-7---
E|-------------------------------------------

Al acabar la 3ª parte del requinto, se repite la 2ª y ahí acaba la canción

Eso es todo.. espero les guste
LMC.-
Добавлено: 03.05.2016
Другие материалы по этой песне:

Страница создана 21.04.2012
http://primanota.ru/taller-para-ninos/mariposa-tecnicolor-chords.htm
Привет, Гость.
Предлагаем пройти революционный курс по гитаре.
Подарок от PrimaNota.Ru, забирай!