PrimaNota.ru - самый крупный в мире бесплатный архив песенных текстов, аккордов, табулатур и нот


Talking Heads - The Good Thing - аккорды и текст, таба, бас-таба, видео

Регистрация Запомнить меня
Войти через:  Facebook Google Twitter Vk Yandex Mail.ru

Talking Heads - The Good Thing - аккорды и текст, таба, бас-таба, видео

Печатать
Просмотров: 60
Авторы музыки: David Byrne
Авторы текста: David Byrne
The Good Thing
Talking Heads
Talking Heads   THE GOOD THING ( album More Songs about Buildings and Food )

https://www.youtube.com/watch?v=kMCMudxTTQE


Chords intro

G   xx5433
Em  xx9987

*** INTRO

e|-15--12-----------|12---------------|12---------------|12---------------|
B|---------15--12---|12---------------|12---------------|12---------------|
G|------------------|12--14-12--------|12---------------|12---------------|
D|------------------|12-------14-12-14|12-----14--------|12------14-------|
A|------------------|-----------------|-----------------|-----------------|
E|------------------|-----------------|-----------------|-----------------|

e|-15--12-----------|12---------------|12---------------|-----------------|
B|---------15--12---|12---------------|12---------------|-----------------|
G|------------------|12--14-12--------|12-----7---------|7777777777777777-|
D|------------------|12-------14-12-14|12---------------|-----------------|
A|------------------|-----------------|-----------------|-----------------|
E|------------------|-----------------|-----------------|-----------------|


G       Em     G    Em                 G   Em  G  Em
I will fight       will fight with my heart.

G       Em     G    Em                  G       Em  G  Em
I will fight;      will fight with understanding.
G       Em     G    Em                G     Em  G  Em
In my mind,        the weather never changes
G       Em     G     Em                G  Em  G  Em
Skill overcomes,    difficult situations.


*** INTRO + VERSE Bass 

G|---7----|
D|5------4|    Repeat
A|-----57-|
E|--------|


*** Chorus

A                C             D          F
A straight line exists between me and the good things.
A                 C               D         F
I have found the line and its direction is known to me.
A                        C           D         F
Absolute trust keeps me going in the right direction.
A                C          D                 F
Any intrusion is met with a heart full of the good thing.


*** CHORUS Bass

G|--------|
D|--------|    Repeat
A|0---0---|
E|--------|




G       Em     G    Em        G       Em  G  Em
Try to compare     what I am presenting.
G        Em    G    Em         G       Em  G  Em
You will meet      with much frustration.
G        Em   G   Em          G     Em  G  Em
Try to find   ... similar situation.
G        Em   G     Em             G    Em  G  Em  
You will always    find the same solution.


   
A                   C                  D           F
As the heart finds the good thing, the feeling is multiplied.
A                   C               D       F
Add the will to the strength and it equals conviction.
A              C     D         F
As we economise, efficiency is multiplied,
A                 C           D               F
To the extent I am determined the result is the good thing.
So I say:


Gm                       F
I have adopted this and made it my own:
Gm                          F
Cut back the weakness, reinforce what is strong.
Gm                       F
I have adopted this and made it my own:
Gm                          F
Cut back the weakness, reinforce what is strong.


*** OUTRO

|:Gm   |D   :|
Watch me work


OUTRO Bass

G|--------|--------|
D|5--58-5-|--------|           Repeat
A|--------|5-6-7-9-|
E|--------|--------|





Добавлено: 29.05.2016
Другие материалы по этой песне:
  • Аккорды и текст

Страница создана 04.03.2012
http://primanota.ru/talking-heads/the-good-thing-chords.htm
Привет, Гость.
Предлагаем пройти революционный курс по гитаре.
Подарок от PrimaNota.Ru, забирай!