PrimaNota.ru - самый крупный в мире бесплатный архив песенных текстов, аккордов, табулатур и нот


Talking Heads - Swamp - бас-таба, видео

Регистрация Запомнить меня
Войти через:  Facebook Google Twitter Vk Yandex Mail.ru

Talking Heads - Swamp - бас-таба, видео

Печатать
Просмотров: 49
Уроки эстрадного вокала в Санкт-Петербурге
Авторы музыки: Tina Weymouth, Jerry Harrison, Chris Frantz, David Byrne
Авторы текста: David Byrne
-------------------------------------------------------------------------------
                             Swamp - Talking Heads
-------------------------------------------------------------------------------
Tabbed by: Chris
E-mail: 

Tuning:EADG

G|-------------------------------------|-------------------------------------|
D|-------------4--2--------------4--2--|-------------------------------------|
A|--0---0---0-0--------0-0---0--0------|----Repeat till chorus---------------|
E|-------------------------------------|-------------------------------------|
  Chorus:
G|--------------------------------------------|------------------------------|
D|--------------------------------------------|------------------------------|
A|--5-5-5-3-0-3-5-5-5-3-0-3-5-5-3-5-\8-7--0-3-|---Repeat 3 times ------------|
E|--------------------------------------------|------------------------------|

G|-------------------------------------------|-------------------------------|
D|-------------------------------------------|-------------------------------|
A|--5-5-5-3-0-3-5-5-5-3-0-3-5-5-3-5-\8-7--0--|--Sustain the last note--------|
E|-------------------------------------------|-------------------------------|
  "click click"
G|-----------------------------------------------------------|---------------|
D|------------------4--2-------------4--2--------------4--2--|---------------|
A|------------0---0-------0---0---0-0-------0-0---0--0-------|Repeat till end|
E|-----------------------------------------------------------|---------------|
   End
G|-----------------|---------------------------------------------------------|
D|-------4--2------|---------------------------------------------------------|
A|-----0------0x---|---------------------------------------------------------|
E|-----------------|---------------------------------------------------------|



| /  slide up
| \  slide down
| h  hammer-on
| p  pull-off
| ~  vibrato
| +  harmonic
| x  Mute note
===============================================================================
Добавлено: 29.05.2016
Вам также может быть интересно:
Другие материалы по этой песне:
  • Аккорды и текст

Страница создана 29.05.2016
http://primanota.ru/talking-heads/swamp-chords.htm
Привет, Гость.
Предлагаем пройти революционный курс по гитаре.
Подарок от PrimaNota.Ru, забирай!