PrimaNota.ru - самый крупный в мире бесплатный архив песенных текстов, аккордов, табулатур и нот


Talk Talk - The Last Time - текст песни, бас-таба, видео

Регистрация Запомнить меня
Войти через:  Facebook Google Twitter Vk Yandex Mail.ru

Talk Talk - The Last Time - текст песни, бас-таба, видео

Печатать
Просмотров: 113
Tabbed by: bassm99
E-mail: alanmatthews1966@yahoo.co.uk

Tuning: E, A, D, G

"The Last time" from the album "It's My Life" (1984)
Written by Hollis/Curnow

Intro:

G|--------------------------------------------------------------------------|
D|--------------------------------------------------------------------------|
A|--------------------5555555555555555--------------------5555555555555-050-|
E|--5555555555555555--------------------5555555555555555--------------------|

Verse:

G|--------------------------------------------------------------------------|
D|--------------------------------------------------------------------------|
A|--77-5-7--7\-0-3-3-5-(x6)--77-5-7--7\-3333-5555---------------------------|
E|--------------------------------------------------------------------------|

Chorus:

G|--------------------------------------------------------------------------|
D|--------------------------------------------------------------------------|
A|--------------------5555555555555555--------------------5555555555555050--|
E|--5555555555555555--------------------5555555555555555--------------------|

Verse:

G|--------------------------------------------------------------------------|
D|--------------------------------------------------------------------------|
A|--77-5-7--7\-0-3-3-5-(x8)--77-5-7--7\-3333-55-----------------------------|
E|----------------------------------------------3-4-------------------------|

Chorus:

G|--------------------------------------------------------------------------|
D|--------------------------------------------------------------------------|
A|--------------------5555555555555555--------------------5555555555555555--|
E|--5555555555555550--------------------5555555555555550--------------------|

G|--------------------------------------------------------------------------|
D|--------------------------------------------------------------------------|
A|--------------------5555555555555-----------------------5555555555555050--|
E|--5555555555555555---------------034--5555555555555555--------------------|

Solo:

G|-------------------5---77-------------------5---777-----------------------|
D|--------------------------------------------------------------------------|
A|--77-5-7--7\-0-3-3---5-----77-5-7--7\-0-3-3---5---------------------------|
E|--------------------------------------------------------------------------|

G|-------------------5---77-------------------5---77------------------------|
D|--------------------------------------------------------------------------|
A|--77-5-7--7\-0-3-3---5-----77-5-7--7\-0-3-3---5---------------------------|
E|--------------------------------------------------------------------------|

Verse:

G|--------------------------------------------------------------------------|
D|--------------------------------------------------------------------------|
A|--77-5-7--7\-0-3-3-5-(x3)--77-5-7--7\-3333-5555---------------------------|
E|--------------------------------------------------------------------------|

Chorus:

G|--------------------------------------------------------------------------|
D|--------------------------------------------------------------------------|
A|--------------------5555555555555555--------------------5555555555555-----|
E|--5555555555555555--------------------5555555555555555---------------034--|

G|--------------------------------------------------------------------------|
D|--------------------------------------------------------------------------|
A|--------------------5555555555555555--------------------------------------|
E|--5555555555555550-------------------(x3)---------------------------------|

G|--------------------------------------------------------------------------|
D|--------------------------------------------------------------------------|
A|--------------------5555555555555-----------------------------------------|
E|--5555555555555550---------------034--------------------------------------|

G|--------------------------------------------------------------------------|
D|--------------------------------------------------------------------------|
A|--------------------5555555555555555--------------------------------------|
E|--5555555555555550-------------------(x2)---------------------------------|

G|--------------------------------------------------------------------------|
D|--------------------------------------------------------------------------|
A|--------------------5555555555555555--------------------------------------|
E|--5555555555555555--------------------------------------------------------|

G|--------------------------------------------------------------------------|
D|-------------------------------------12-12\-------------------------------|
A|--------------------5555555555555-10--------------------------------------|
E|--5555555555555555--------------------------------------------------------|

G|--------------------------------------------------------------------------|
D|--------------------------------------------------------------------------|
A|--------------------5555555555555555--------------------------------------|
E|--5555555555555550--------------------5555555555555550--------------------|
Добавлено: 02.10.2013
Другие материалы по этой песне:
  • Аккорды и текст

Страница создана 28.04.2012
http://primanota.ru/talk-talk/the-last-time-chords.htm
Привет, Гость.
Предлагаем пройти революционный курс по гитаре.
Подарок от PrimaNota.Ru, забирай!