PrimaNota.ru - самый крупный в мире бесплатный архив песенных текстов, аккордов, табулатур и нот


Talk Talk - It's so Serious - текст песни, бас-таба, видео

Регистрация Запомнить меня
Войти через:  Facebook Google Twitter Vk Yandex Mail.ru

Talk Talk - It's so Serious - текст песни, бас-таба, видео

Печатать
Просмотров: 118
Tabbed by: bassm99
E-mail: alanmatthews1966@yahoo.co.uk

Tuning: E, A, D, G

"It's So Serious" from the album "The Party's Over" (1982)
Written by Hollis/Brenner/Webb/Harris

Intro: (Play Twice)

G|-----55----5----55----5----33----3----33----3-----------------------------|
D|--------------------------------------------------------------------------|
A|--33----33---33----33---11----11---11----11-------------------------------|
E|--------------------------------------------------------------------------|

First Verse: (Play Three Times)

G|-----55----5----55----5----33----3----33----3-----------------------------|
D|--------------------------------------------------------------------------|
A|--33----33---33----33---11----11---11----11-------------------------------|
E|--------------------------------------------------------------------------|


First Verse: (Play Once) 

G|-----55----5----55----5----33----3----------------------------------------|
D|--------------------------------------------------------------------------|
A|--33----33---33----33---11----11---11111111-------------------------------|
E|--------------------------------------------------------------------------|


Chorus:

G|------------------------------------------------------------------55555555|
D|--------------------------------------------------------------------------|
A|--3333333333333333--------------------1111111111111111--33333333----------|
E|--------------------1111111111111111--------------------------------------|

Repeat Intro: (Play Once)

G|-----55----5----55----5----33----3----33----3-----------------------------|
D|--------------------------------------------------------------------------|
A|--33----33---33----33---11----11---11----11-------------------------------|
E|--------------------------------------------------------------------------|

Second Verse: (Play Three Times)

G|-----55----5----55----5----33----3----33----3-----------------------------|
D|--------------------------------------------------------------------------|
A|--33----33---33----33---11----11---11----11-------------------------------|
E|--------------------------------------------------------------------------|

Second Verse: (Play Once) 

G|-----55----5----55----5----33----3----------------------------------------|
D|--------------------------------------------------------------------------|
A|--33----33---33----33---11----11---11111111-------------------------------|
E|--------------------------------------------------------------------------|

Chorus:

G|--------------------------------------------------------------------------|
D|--------------------------------------------------------------------------|
A|--3333333333333333--------------------1111111111111111--33333333----------|
E|--------------------1111111111111111--------------------------------------|

G|--------------------------------------------------------------------------|
D|--------------------------------------------------------------------------|
A|--15-15-15-15-15-15-15-15-------------------------------------------------|
E|--------------------------------------------------------------------------|

G|--------------------------------------------------------------------------|
D|--------------------------------------------------------------------------|
A|--3333333333333333--------------------1111111111111111--3333333333333333--|
E|--------------------1111111111111111--------------------------------------|

Middle: (Play Four Times) (Single Sustained Notes)

G|--------------------------------------------------------------------------|
D|--------12----------------------------------------------------------------|
A|--15----------------------------------------------------------------------|
E|--------------------------------------------------------------------------|

Chorus: (Play Once) 

G|--------------------------------------------------------------------------|
D|--------------------------------------------------------------------------|
A|--3333333333333333--------------------1111111111111111--33333333----------|
E|--------------------1111111111111111--------------------------------------|

G|--------------------------------------------------------------------------|
D|--10-10-10-10-10-10-10-10-------------------------------------------------|
A|--------------------------------------------------------------------------|
E|--------------------------------------------------------------------------|

Chorus: (Play Twice)

G|--------------------------------------------------------------------------|
D|--------------------------------------------------------------------------|
A|--3333333333333333--------------------1111111111111111--33333333----------|
E|--------------------1111111111111111--------------------------------------|

G|--------------------------------------------------------------------------|
D|--------------------------------------------------------------------------|
A|--15-15-15-15-15-15-15-15-------------------------------------------------|
E|--------------------------------------------------------------------------|


Добавлено: 23.11.2013
Другие материалы по этой песне:
  • Аккорды и текст

Страница создана 18.05.2012
http://primanota.ru/talk-talk/its-so-serious-chords.htm
Привет, Гость.
Предлагаем пройти революционный курс по гитаре.
Подарок от PrimaNota.Ru, забирай!