PrimaNota.ru - самый крупный в мире бесплатный архив песенных текстов, аккордов, табулатур и нот


Talk Talk - Hate - текст песни, бас-таба, видео

Регистрация Запомнить меня
Войти через:  Facebook Google Twitter Vk Yandex Mail.ru

Talk Talk - Hate - текст песни, бас-таба, видео

Печатать
Просмотров: 116
Tabbed by: bassm99
E-mail: alanmatthews1966@yahoo.co.uk

Tuning: E, A, D, G

"Hate" from the album "The Party's Over" (1982)
Written by Hollis/Brenner/Webb/Harris

Intro:

G|-----4-----5--------------4444--------5555--------------------------------|
D|--7-----2-----------7777--------2222--------------------------------------|
A|--------------------------------------------------------------------------|
E|--------------(x8)--------------------------(x6)--------------------------|

Verse:

G|--------4444--------5555--------------4444--------------------------------|
D|--7777--------2222--------------7777--------22222222----------------------|
A|--------------------------------------------------------------------------|
E|--------------------------(x3)--------------------------------------------|


G|--------4444--------5555--------------4444--------------------------------|
D|--7777--------2222--------------7777--------22222222----------------------|
A|--------------------------------------------------------------------------|
E|--------------------------(x5)--------------------------------------------|

Chorus:

G|--------------------------------------------------------------------------|
D|--------------------------------------------------------------------------|
A|--------------------------------------------------------------------------|
E|--13-13-13-13-13-13-13-13-(x3)--13-13-13-13-13-15-14-12-------------------|

G|--------------------------------------------------------------------------|
D|--------------------------------------------------------------------------|
A|--------------------------------------------------------------------------|
E|--000--00--000--000--00--000----------------------------------------------|

G|--------------------------------------------------------------------------|
D|-------33-----------------------------------------------------------------|
A|--------------------------------------------------------------------------|
E|--1--1-----(x4)--000--00--000--000--00--000-------------------------------|

Pre Verse:

G|--------4444--------5555--------------4444--------5-----------------------|
D|--7777--------2222--------------7777--------2222--------------------------|
A|--------------------------------------------------------------------------|
E|--------------------------(x3)--------------------------------------------|

Verse:

G|--------4444--------5555--------------4444--------------------------------|
D|--7777--------2222--------------7777--------22222222----------------------|
A|--------------------------------------------------------------------------|
E|--------------------------(x3)--------------------------------------------|

Repeat Chorus:

Middle:

G|--------------------------------------------------------------------------|
D|--------------------------------------------------------------------------|
A|--3333333333333333--0000000000000000--(x2)--3333333333333333--00000000----|
E|--------------------------------------------------------------------------|

Ending:

G|----2----------4----------5----------7------------------------------------|
D|--------------------------------------------------------------------------|
A|--0----------2----------3----------5--------------------------------------|
E|-------(x8)-------(x8)-------(x8)-------(x8)------------------------------|

G|--------------------------------------------------------------------------|
D|--------------------------------------------------------------------------|
A|--0000000000000000--2222222222222222--3333333333333333--5555555555555555--|
E|--------------------------------------------------------------------------|

G|--------------------------------------------------------------------------|
D|--------------------------------------------------------------------------|
A|--0000000000000000--2222222222222222--3333333333333333--5555555555555555--|
E|--------------------------------------------------------------------------|

End:

G|--------------------------------------------------------------------------|
D|--------------------------------------------------------------------------|
A|--555--55-----------------------------------------------------------------|
E|--------------------------------------------------------------------------|
Добавлено: 12.11.2013
Другие материалы по этой песне:
  • Аккорды и текст

Страница создана 26.02.2012
http://primanota.ru/talk-talk/hate-chords.htm
Привет, Гость.
Предлагаем пройти революционный курс по гитаре.
Подарок от PrimaNota.Ru, забирай!