PrimaNota.ru - самый крупный в мире бесплатный архив песенных текстов, аккордов, табулатур и нот


Talk Talk - Does Caroline Know? - аккорды и текст, видео

Регистрация Запомнить меня
Войти через:  Facebook Google Twitter Vk Yandex Mail.ru

Talk Talk - Does Caroline Know? - аккорды и текст, видео

Печатать
Просмотров: 107
Does Caroline Know?
Talk Talk
Talk Talk - Does Caroline Know?
Transcribed 01/02/2000 by Mike Garoghan
Please email corrections to>
>>>>>>>>>>>> Mike@psiron.demon.co.uk


CHORDS
C   - x32010
Bb  - x13331
A#  - 466544
Gm7 - 3x3333
A   - 577655
G   - 355433

SYNTH INTRO TAB

   C           Bb         C           Bb
e--10-8--8-8---8-6--6-6---10-8--8-8---8-6--6-6-:
B--8--8--8-8---6-6--6-6---8--8--8-8---6-6--6-6-:
G----------------------------------------------:
D----------------------------------------------:
A----------------------------------------------:
E----------------------------------------------:
   A#         Gm7        C           Bb
e--3-4--4-4---8-6--6-6---10-8--8-8---8-6--6-6--:
B--4-4--4-4---6-6--6-6---8--8--8-8---6-6--6-6--:
G----------------------------------------------:
D----------------------------------------------:
A----------------------------------------------:
E----------------------------------------------:


@ Does Caroline Know?

C    Bb    C    Bb    C    Bb    C     Bb

C    Bb    C    Bb    A#   Gm7


C    Bb    C    Bb    A#   Gm7    A    G    A    G

C                 Bb                    C    Bb
  Maybe when the .......................
C                Bb            A#           Gm7
  To put another drink ................................
C                Bb
  G easy with .................
C                    Bb
  I'm breaking every ..................
A#                    Gm7
  Does it matter if .............
         A     G    A    G
Caroline knows

Every little accident...........

         A       G
Caroline knows
         A       G
Caroline knows

A    G    A     G    C    Bb     C     Bb

C    Bb   C     Bb



G easy with a thief to blame
I'm breaking ....................
A#                    Gm7
  Does it matter ..............
A#                    Gm7
  Does it matter ..............

A   G    A   G

         A     G
Caroline knows

A   G  (til fade)


******************************************
******************************************
TINSELTOWN - The Unofficial Blue Nile Site
http://www.psiron.demon.co.uk/
******************************************
******************************************
A COMPLETE VERSION WITH ALL THE LYRICS CAN
BE FOUND AT THE ABOVE WEBSITE


     
Добавлено: 19.11.2013
Другие материалы по этой песне:
  • Аккорды и текст

Страница создана 19.05.2012
http://primanota.ru/talk-talk/does-caroline-know-chords.htm
Привет, Гость.
Предлагаем пройти революционный курс по гитаре.
Подарок от PrimaNota.Ru, забирай!