PrimaNota.ru - самый крупный в мире бесплатный архив песенных текстов, аккордов, табулатур и нот


Talk Show - Hello Hello - аккорды и текст, таба, видео

Регистрация Запомнить меня
Войти через:  Facebook Google Twitter Vk Yandex Mail.ru

Talk Show - Hello Hello - аккорды и текст, таба, видео

Печатать
Просмотров: 240
Уроки эстрадного вокала в Санкт-Петербурге
Hello Hello
Talk Show
SONG: Hello Hello
ARTIST: Talk Show
ALBUM: Talk Show

INTRO / MAIN RIFF (fast!)

E|-------------------------------|
B|-------------------------------|
G|-----------------4p2---2--2-2--|
D|---------------------4-2--2-2--|
A|-------4-0-0-2p0-------0--0-0--|
E|-0-2-4-------------------------|

PRECHORUS ("Hello hellO")

E|------------------------|
B|------------------------|
G|-10--10-10---12--12-12--|
D|-10--10-10---12--12-10--|
A|--8---8--8---10--10-10--|
E|------------------------|

CHORUS (X = mute string)

E|-----------------------------0--0-----------------------|
B|-----------------------------3--3-----------------------|
G|---------------4--4-4--4-4---2--2----0---0---0---0------|
D|-3--3-3--3-3---3--3-3--3-3---0--0--3---2---0------------|
A|-3--3-3--3-3---X--X-X--X-X---0--0--------------3---2-0--|
E|-1--1-1--1-1---1--1-1--1-1------------------------------|

POSTCHORUS

E|-------------------------------------------------------------|
B|-------------------------------------------------------------|
G|-----------------------------------------------------0h2--7--|
D|-5--5-5---6--6-6---7-7-7-7-6-6-6-6-4-4-4-4--2-----2--0h2--7--|
A|-5--5-5---6--6-6---7-7-7-7-6-6-6-6-4-4-4-4--2-----2--0----5--|
E|-3--3-3---4--4-4---5-5-5-5-4-4-4-4-2-2-2-2--0-----0----------|

SOLO

Jimmy Page-like, in the key of A

Tabbed by Ryan Liddell
     
Добавлено: 22.09.2013
Вам также может быть интересно:
Другие материалы по этой песне:
  • Аккорды и текст

Страница создана 06.04.2012
http://primanota.ru/talk-show/hello-hello-chords.htm
Привет, Гость.
Предлагаем пройти революционный курс по гитаре.
Подарок от PrimaNota.Ru, забирай!