PrimaNota.ru - самый крупный в мире бесплатный архив песенных текстов, аккордов, табулатур и нот


Talata - Fed Up - аккорды и текст, видео

Регистрация Запомнить меня
Войти через:  Facebook Google Twitter Vk Yandex Mail.ru

Talata - Fed Up - аккорды и текст, видео

Печатать
Просмотров: 51
Fed Up
Talata
Fed Up

Artist: Talata
Tabbed by: Adrian Carlo Picar
Cel. No.: 09267544905
Email Add.: picar.adrian@gmail.com
            banzaichibichan_ultimate_0034@yahoo.com

Drop D Tuning

Chords used:
E    - X22100
F#m  - X44200
A    - X00220
D    - x00230


Intro:

e|------------------------------------------------------------------------------|
B|------------------------------------------------------------------------------|
G|----------------4-2-4-2-----------4-2-4-2-----------4-2-4-2-------------------|
D|-12///-4-2-4-2-----------4-2-4-2-----------4-2-4-2-----------4-2-4-2--12///---|
A|-12///-4-2-4-2-----------4-2-4-2-----------4-2-4-2-----------4-2-4-2--12///---|
D|-12///-4-2-4-2-----------4-2-4-2-----------4-2-4-2-----------4-2-4-2--12///---|

e|--------------------------------------------------------|
B|--------------------------------------------------------|
G|----------------------------------99999999--------------| 2x
D|-4-2-4-2-4-2-4-2-4-2-4-2-4-2-4-2------------22222-4-0---|
A|-4-2-4-2-4-2-4-2-4-2-4-2-4-2-4-2--77777777--22222-4-0---|
D|-4-2-4-2-4-2-4-2-4-2-4-2-4-2-4-2------------22222-4-0---|

D--


Verse 1 (F#m-D):

'Wag nang paulit-ulit pang tanungin
Siguradong sagot ko'y 'di mo makakayanan
Iba sa gustong marinig
'Di ka naman sanay na lumuha
Abot-langit ang tuwa 'pag ikaw ang nagdusa


Pre-Chorus 1 (E-D):

Handa ka na ba?
Handa ka na ba?


Chorus (A-F#m-D):

Napagod, nagsawa, nanlamig
Nagbigay ng lahat, ubos na ang pag-ibig
Sa'yo
Sa'yo


Verse 2 (F#m-D):

Tanong mo'y bakit ngayon pa nangyari 'to
Pasensya na dapat noon pa nasabi sa'yo
Sinubukan kong hanapin
Kung may natitirang damdamin


Pre-Chorus 2 (E-D):

Wala na pala
Wala na pala


Repeat Chorus

Instrumental: E-D 6x

Repeat Chorus 2x

Outro:

A-F#m-D 2x
F#m-E-D
Добавлено: 13.08.2015
Другие материалы по этой песне:
  • Аккорды и текст

Страница создана 13.08.2015
http://primanota.ru/talata/fed-up-chords.htm
Привет, Гость.
Предлагаем пройти революционный курс по гитаре.
Подарок от PrimaNota.Ru, забирай!