PrimaNota.ru - самый крупный в мире бесплатный архив песенных текстов, аккордов, табулатур и нот


Taking Back Sunday - What It Feel Like To Be A Ghost - таба, видео

Регистрация Запомнить меня
Войти через:  Facebook Google Twitter Vk Yandex Mail.ru

Taking Back Sunday - What It Feel Like To Be A Ghost - таба, видео

Печатать
Просмотров: 117
Уроки эстрадного вокала в Санкт-Петербурге
I couldn't figure out the lead guitar in some of the parts so all I have is the power 
give feedback or add on.

Tuning: Standard EADGBe

Intro:
Lead [x4]
e|----------------------------------|-----------------------------------|
B|----------------------------------|-----------------------------------|
G|----------------------------------|-----------------------------------|
D|---4~--4----4~--4-----------------|---4~--4----4~--4----------------4~|
A|---------------------4~--4----4~-4|---------------------4~--4----4b-4~|
E|-4----4--444---4--40----0--000--0-|-4----4--444---4--40----0--000---2~|

Rythm [x2]
e|----------------------------|-----------------------------|
B|----------------------------|-----------------------------|
G|----------------------------|-----------------------------|
D|666-6-6666-6-6222-2-2222-2-2|666-6-6666-6-6222-2-2222-2-4~|
A|666-6-6666-6-6222-2-2222-2-2|666-6-6666-6-6222-2-2222-2-4~|
E|444-4-4444-4-4000-0-0000-0-0|444-4-4444-4-4000-0-0000-0-2~|

Verse:
Lead: Don't know lead for verse

Rythm:
e|--------------------------------|--------------------------------|
B|--------------------------------|--------------------------------|
G|--------------------------------|--------------66----------------|
D|66622266622266224444444444444444|66622266622266xx4444444444444444|
A|66622266622266224444444444444444|66622266622266444444444444444444|
E|44400044400044002222222222222222|44400044400044--2222222222222222|
PM******************************** **************  ****************
e|--------------------------------|--------------------------------|
B|--------------------------------|--------------------------------|
G|--------------------------------|--------------------------------|
D|66622266622266224444444444444444|6662226662226622444444444444----|
A|66622266622266224444444444444444|6662226662226622444444444444-4-4|
E|44400044400044002222222222222222|44400044400044002222222222220-0-|
PM******************************** **********************

Chorus:
Lead: [First half only]
e|-------------------------------------------------|
B|-------------------------------------------------|
G|13131313131313131212121212121212-----------------|
D|xxxxxxxxxxxxxxxxx-x-x-x-x-x-x-x------------------|
A|11111111111111111010101010101010---4~--4----4~-4-|
E|---------------------------------0----0--000--0-0|
[NOTE: Those are 13 x 11 and 12 x 10, not 1 x 1 3 x 1]
e|-------------------------------------------------|
B|-------------------------------------------------|
G|13131313131313131212121212121212-----------------|
D|xxxxxxxxxxxxxxxxxxxxxxxxxxxxxxxx---------------4~|
A|11111111111111111010101010101010---4~--4----4~-4~|
E|---------------------------------0----0--000---2~|

Rythm:
e|--------------------------------|
B|--------------------------------|
G|--------------------------------|
D|66666666666666662222222222222222|
A|66666666666666662222222222222222|
E|44444444444444440000000000000000|

e|--------------------------------|
B|--------------------------------|
G|--------------------------------|
D|6666666666666666--------------2~|
A|6666666666666666--4~--4----4~-2~|
E|44444444444444440----0--000---0~|

Repeat Verse
Repeat Chorus EXCEPT last part changes:
e|-----------------------------------------|
B|-----------------------------------------|
G|-----------------------------------------|
D|6666666666666666-----------------------2~|
A|6666666666666666--4~--4----4~--4---4---2~|
E|44444444444444440----0--000--00-000--000~|

Bridge: Haven't figured it out yet
Except the last bit

e|---------------------------------------------------|
B|---------------------------------------------------|
G|6666-8888-9999-11111111-8888-9999-11111111-12121212|
D|xxxx-xxxx-xxxx-xxxxxxxx-xxxx-xxxx-xxxxxxxx-xxxxxxxx|
A|4444-6666-7777-9-9-9-9--6666-7777-9-9-9-9--10101010|
E|---------------------------------------------------|

e|-----------------------------------|
B|-----------------------------------|
G|-----------------------------------|
D|---4~--4----4~--4----4~--4----4~-2~|
A|---------------------------------2~|
E|-4----4--444---4--444---4--444---0~|

Ending Chorus:
Lead: [First half only]
e|-------------------------------------------------|
B|-------------------------------------------------|
G|13131313131313131212121212121212-----------------|
D|xxxxxxxxxxxxxxxxx-x-x-x-x-x-x-x------------------|
A|11111111111111111010101010101010---4~--4----4~-4-|
E|---------------------------------0----0--000--0-0|
[NOTE: Those are 13 x 11 and 12 x 10, not 1 x 1 3 x 1]
e|-------------------------------------------------|
B|-------------------------------------------------|
G|13131313131313131212121212121212-----------------|
D|xxxxxxxxxxxxxxxxxxxxxxxxxxxxxxxx---------------4~|
A|11111111111111111010101010101010---4~--4----4~-4~|
E|---------------------------------0----0--000---2~|

Rythm: [x2]
e|--------------------------------|
B|--------------------------------|
G|--------------------------------|
D|66666666666666662222222222222222|
A|66666666666666662222222222222222|
E|44444444444444440000000000000000|

Outro:
e|--------------------|
B|--------------------|
G|--------------------|
D|---4~--4----4~--4--6|
A|-------------------6|
E|-4----4--444---4--44|

Legend:
~:Hold Note
b:Bend
PM:Palm Mute
**:Where to palm mute


Please, feedback would be nice: atthe_endoftheworld@yahoo.com
-Philly F.
Добавлено: 09.05.2012
Другие материалы по этой песне:
  • Аккорды и текст

Страница создана 10.03.2012
http://primanota.ru/taking-back-sunday/what-it-feel-like-to-be-a-ghost-chords.htm
Привет, Гость.
Предлагаем пройти революционный курс по гитаре.
Подарок от PrimaNota.Ru, забирай!