PrimaNota.ru - самый крупный в мире бесплатный архив песенных текстов, аккордов, табулатур и нот


Taking Back Sunday - Louder Now - таба, видео

Регистрация Запомнить меня
Войти через:  Facebook Google Twitter Vk Yandex Mail.ru

Taking Back Sunday - Louder Now - таба, видео

Печатать
Просмотров: 70
Album – Louder Now
Artist- Taking Back Sunday

1.  What's it Feel Like to Be a Ghost?
2.  Liar (It Takes One to Know One)
3.  MakeDamnSure
4.  Up Against (Blackout)
5.  My Blue Heaven
6.  Twenty-Twenty Surgery
7.  Spin
8.  Divine Intervention
9.  Miami
10. Error: Operator
11. I'll Let You Live
12. Brooklyn (If You See Something, Say Something)

All tabs by: Larry A.

 ____________________________________
| What's it Feel Like to Be a Ghost? |
|____________________________________|

Tuning: Drop Db (Eb Bb Gb Db Ab Db)
                (D# A# F# C# G# C#)
Guitar 1- Slight Distortion
Guitar 2- Distortion

 ___________________
| Intro (0:00-0:25) |
|___________________|

Guitar 1
eb| |---------------------------------|---------------------------------|
Bb| |---------------------------------|---------------------------------|
Gb| |---------------------------------|---------------------------------|
Db| |---------------------------------|---------------------------------|
Ab| |-x--10-----x10-x-x-x10-----x10-x-|-x---5-----x-5-x-x-x-5-----x-5-x-|
Db| |-7---------7---7-7-7-------7---7-|-3---------3---3-3-3-------3---3-|

Guitar 1
eb| |---------------------------------|---------------------------------|
Bb| |---------------------------------|---------------------------------|
Gb| |---------------------------------|---------------------------------|
Db| |---------------------------------|-----------------------------0---|
Ab| |-x--10-----x10-x-x-x10-----x10-x-|-x---5-----x-5-x-x-x-5b------0---|
Db| |-7---------7---7-7-7-------7---7-|-3---------3---3-3-3---------0---|

Guitar 1
eb| |---------------------------------|---------------------------------|
Bb| |---------------------------------|---------------------------------|
Gb| |---------------------------------|---------------------------------|
Db| |---------------------------------|---------------------------------|
Ab| |-x--10-----x10-x-x-x10-----x10-x-|-x---5-----x-5-x-x-x-5-----x-5-x-|
Db| |-7---------7---7-7-7-------7---7-|-3---------3---3-3-3-------3---3-|
                                                                        |
Guitar 2                                                                |
eb| |---------------------------------|---------------------------------|
Bb| |---------------------------------|---------------------------------|
Gb| |-2---2-----2---2-2-2-2-----2---2-|---------------------------------|
Db| |-2---2-----2---2-2-2-2-----2---2-|-3---3-----3---3-3-3-3-----3---3-|
Ab| |-0---0-----0---0-0-0-0-----0---0-|-3---3-----3---3-3-3-3-----3---3-|
Db| |---------------------------------|-3---3-----3---3-3-3-3-----3---3-|

Guitar 1
eb| |---------------------------------|---------------------------------|
Bb| |---------------------------------|---------------------------------|
Gb| |---------------------------------|---------------------------------|
Db| |---------------------------------|-----------------------------0---|
Ab| |-x--10-----x10-x-x-x10-----x10-x-|-x---5-----x-5-x-x-x-5b------0---|
Db| |-7---------7---7-7-7-------7---7-|-3---------3---3-3-3---------0---|
                                                                        |
Guitar 2                                                                |
eb| |---------------------------------|---------------------------------|
Bb| |---------------------------------|---------------------------------|
Gb| |-2---2-----2---2-2-2-2-----2---2-|---------------------------------|
Db| |-2---2-----2---2-2-2-2-----2---2-|-3---3-----3---3-3-3-3-------0---|
Ab| |-0---0-----0---0-0-0-0-----0---0-|-3---3-----3---3-3-3-3-------0---|
Db| |---------------------------------|-3---3-----3---3-3-3-3-------0---|

 ___________________
| Verse (0:25-0:51) |
|___________________|

Guitar 1
eb| |---------------------------------|---------------------------------|
Bb| |---------------------------------|---------------------------------|
Gb| |-2-2-2-------2-2-2-------2-2-----|---------------------------------|
Db| |-2-2-2-3-3-3-2-2-2-3-3-3-2-2-3-3-|-5-5-5-5-5-5-5-5-5-5-5-5-5-5-5-5-|
Ab| |-0-0-0-3-3-3-0-0-0-3-3-3-0-0-3-3-|-5-5-5-5-5-5-5-5-5-5-5-5-5-5-5-5-|
Db| |-------3-3-3-------3-3-3-----3-3-|-5-5-5-5-5-5-5-5-5-5-5-5-5-5-5-5-|
      * * * * * * * * * * * * * * * *   * * * * * * * * * * * * * * * *
      Then you said  about your dreams  My call...           "If you
      a little more  like that was                (My call)   would only

Guitar 1
eb| |---------------------------------|---------------------------------|
Bb| |---------------------------------|---------------------------------|
Gb| |-2-2-2-------2-2-2-------2-2-----|---------------------------------|
Db| |-2-2-2-3-3-3-2-2-2-3-3-3-2-2-3-3-|-5-5-5-5-5-5-5-5-5-5-5-5-5-5-5-5-|
Ab| |-0-0-0-3-3-3-0-0-0-3-3-3-0-0-3-3-|-5-5-5-5-5-5-5-5-5-5-5-5-5-5-5-5-|
Db| |-------3-3-3-------3-3-3-----3-3-|-5-5-5-5-5-5-5-5-5-5-5-5-5-5-5-5-|
      * * * * * * * * * * * * * *       * * * * * * * * * * * * * * * * |
      Listen" Bypassed everything and    Straight for the neck          |
                                 went   (Straight for the neck)         |
                                                                        |
Guitar 2                                                                |
eb| |---------------------------------|---------------------------------|
Bb| |---------------------------------|---------------------------------|
Gb| |-----------------------------5/7-|---------------------------------|
Db| |-----------------------------x-x-|---------------------------12/14-|
Ab| |-----------------------------3/5-|---------------------------------|
Db| |---------------------------------|---------------------------------|

Guitar 1
eb| |---------------------------------|---------------------------------|
Bb| |---------------------------------|---------------------------------|
Gb| |-2-2-2-------2-2-2-------2-2-----|---------------------------------|
Db| |-2-2-2-3-3-3-2-2-2-3-3-3-2-2-3-3-|-5-5-5-5-5-5-5-5-5-5-5-5-5-5-5-5-|
Ab| |-0-0-0-3-3-3-0-0-0-3-3-3-0-0-3-3-|-5-5-5-5-5-5-5-5-5-5-5-5-5-5-5-5-|
Db| |-------3-3-3-------3-3-3-----3-3-|-5-5-5-5-5-5-5-5-5-5-5-5-5-5-5-5-|
      * * * * * * * * * * * * * * * *   * * * * * * * * * * * * * * * * |
                   We're studied                            Dragged you |
     (I study)                      (Up nightly)                        |
                                                                        |
Guitar 2                                                                |
eb| |---------------------------------|---------------------------------|
Bb| |---------------------------------|---------------------------------|
Gb| |---------------------------------|---------------------------------|
Db| |141514121512--15----15--1415--15-|141514121512--15----15--1415--15-|
Ab| |------------15--1514--12----12---|------------15--1514--12----12---|
Db| |---------------------------------|---------------------------------|
      * * * * * * * * * * * * * * * *   * * * * * * * * * * * * * * * *

Guitar 1
eb| |---------------------------------|---------------------------------|
Bb| |---------------------------------|---------------------------------|
Gb| |-2-2-2-------2-2-2-------2-2-----|---------------------------------|
Db| |-2-2-2-3-3-3-2-2-2-3-3-3-2-2-3-3-|-5-5-5-5-5-5-5-5-5-5-5-5---------|
Ab| |-0-0-0-3-3-3-0-0-0-3-3-3-0-0-3-3-|-5-5-5-5-5-5-5-5-5-5-5-5-x-5-x-5-|
Db| |-------3-3-3-------3-3-3-----3-3-|-5-5-5-5-5-5-5-5-5-5-5-5-3---3---|
      * * * * * * * * * * * * * * * *   * * * * * * * * * * * *         |
      Out  Into the streets  Before you buckle at your knees            |
                                                  (Buckle at your knees)|
                                                                        |
Guitar 2                                                                |
eb| |---------------------------------|---------------------------------|
Bb| |---------------------------------|---------------------------------|
Gb| |---------------------------------|---------------------------------|
Db| |141514121512--15----15--1415--15-|141514121512--15----15--1415--15-|
Ab| |------------15--1514--12----12---|------------15--1514--12----12---|
Db| |---------------------------------|---------------------------------|
      * * * * * * * * * * * * * * * *  (* * * * * * * * * * * * * * * *)

 ________________________
| Pre-Chorus (0:51-1:04) |
|________________________|

Guitar 1
eb| |---------------------------------|---------------------------------|
Bb| |---------------------------------|---------------------------------|
Gb| |14141414141414141212121212121212-|---------------------------------|
Db| |-x-x-x-x-x-x-x-x-x-x-x-x-x-x-x-x-|---------------------------------|
Ab| |12121212121212121010101010101010-|-x---5-----x-5-x-x-x-5-----x-5-x-|
Db| |---------------------------------|-3---------3---3-3-3-------3---3-|
          "What's it feel like to be a  ghost?"                         |
                                                (Louder now, louder now)|
                                                                        |
Guitar 2                                                                |
eb| |---------------------------------|---------------------------------|
Bb| |---------------------------------|---------------------------------|
Gb| |-2-2-2-2-2-2-2-2-2-2-2-2-2-2-2-2-|---------------------------------|
Db| |-2-2-2-2-2-2-2-2-2-2-2-2-2-2-2-2-|-3---3-----3---3-3-3-3-----3---3-|
Ab| |-0-0-0-0-0-0-0-0-0-0-0-0-0-0-0-0-|-3---3-----3---3-3-3-3-----3---3-|
Db| |---------------------------------|-3---3-----3---3-3-3-3-----3---3-|

Guitar 1
eb| |---------------------------------|---------------------------------|
Bb| |---------------------------------|---------------------------------|
Gb| |14141414141414141212121212121212-|---------------------------------|
Db| |-x-x-x-x-x-x-x-x-x-x-x-x-x-x-x-x-|-----------------------------0---|
Ab| |12121212121212121010101010101010-|-x---5-----x-5-x-x-x-5b------0---|
Db| |---------------------------------|-3---------3---3-3-3---------0---|
          "What's it feel like to be a  ghost?"                         |
                                                      (Now...)          |
                                                                        |
Guitar 2                                                                |
eb| |---------------------------------|---------------------------------|
Bb| |---------------------------------|---------------------------------|
Gb| |-2-2-2-2-2-2-2-2-2-2-2-2-2-2-2-2-|---------------------------------|
Db| |-2-2-2-2-2-2-2-2-2-2-2-2-2-2-2-2-|-3---3-----3---3-3-3-3-------0---|
Ab| |-0-0-0-0-0-0-0-0-0-0-0-0-0-0-0-0-|-3---3-----3---3-3-3-3-------0---|
Db| |---------------------------------|-3---3-----3---3-3-3-3-------0---|

 ____________________
| Chorus (1:04-1:17) |
|____________________|

Guitar 1 & 2
eb| |---------------------------------|---------------------------------|
Bb| |---------------------------------|---------------------------------|
Gb| |-2-2-2-2-2-2-2-2-2-2-2-2-2-2-2-2-|---------------------------------|
Db| |-2-2-2-2-2-2-2-2-2-2-2-2-2-2-2-2-|-3-3-3-3-3-3-3-3-3-3-3-3-3-3-3-3-|
Ab| |-0-0-0-0-0-0-0-0-0-0-0-0-0-0-0-0-|-3-3-3-3-3-3-3-3-3-3-3-3-3-3-3-3-|
Db| |---------------------------------|-3-3-3-3-3-3-3-3-3-3-3-3-3-3-3-3-|
      Are you up for, are you up for    this?
                                     (Well are you up for, are you up for)

Guitar 1
eb| |---------------------------------|---------------------------------|
Bb| |---------------------------------|---------------------------------|
Gb| |-2-2-2-2-2-2-2-2-2-2-2-2-2-2-2-2-|---------------------------------|
Db| |-2-2-2-2-2-2-2-2-2-2-2-2-2-2-2-2-|-----------------------------0---|
Ab| |-0-0-0-0-0-0-0-0-0-0-0-0-0-0-0-0-|-x---5-----x-5-x-x-x-5b------0---|
Db| |---------------------------------|-3---------3---3-3-3---------0---|
      Are you up for, are you up for    this?                           |
                                   (Well are you up for, are you up for)|
                                                                        |
                                                                        |
Guitar 2                                                                |
eb| |---------------------------------|---------------------------------|
Bb| |---------------------------------|---------------------------------|
Gb| |-2-2-2-2-2-2-2-2-2-2-2-2-2-2-2-2-|---------------------------------|
Db| |-2-2-2-2-2-2-2-2-2-2-2-2-2-2-2-2-|-3---3-----3---3-3-3-3-------0---|
Ab| |-0-0-0-0-0-0-0-0-0-0-0-0-0-0-0-0-|-3---3-----3---3-3-3-3-------0---|
Db| |---------------------------------|-3---3-----3---3-3-3-3-------0---|

 ___________________
| Verse (1:17-1:42) |
|___________________|

Guitar 1
eb| |---------------------------------|---------------------------------|
Bb| |---------------------------------|---------------------------------|
Gb| |-5-5-5-5-5-5-5-5-5-5-5-5-5-5-5-5-|-4-4-4-4-4-4-4-4-4-4-4-4-4-4-4-4-|
Db| |-5-5-5-5-5-5-5-5-5-5-5-5-5-5-5-5-|-5-5-5-5-5-5-5-5-5-5-5-5-5-5-5-5-|
Ab| |---------------------------------|---------------------------------|
Db| |---------------------------------|---------------------------------|
      * * * * * * * * * * * * * * * *   * * * * * * * * * * * * * * * * |
      This is quick but not quite pain -less it's, perched on your arm  |
                                                  (Perched on your arm) |
Guitar 2                                                                |
eb| |---------------------------------|---------------------------------|
Bb| |---------------------------------|---------------------------------|
Gb| |---------------------------------|---------------------------------|
Db| |---------------------------------|---------5-5-5-5-5-5-5-5-5-5-5-5-|
Ab| |---------------------------------|---------5-5-5-5-5-5-5-5-5-5-5-5-|
Db| |---------------------------------|---------5-5-5-5-5-5-5-5-5-5-5-5-|
                                                * * * * * * * * * * * *

Guitar 1
eb| |---------------------------------|---------------------------------|
Bb| |---------------------------------|---------------------------------|
Gb| |-2-2-2-------2-2-2-------2-2-----|---------------------------------|
Db| |-2-2-2-3-3-3-2-2-2-3-3-3-2-2-3-3-|-5-5-5-5-5-5-5-5-5-5-5-5-5-5-5-5-|
Ab| |-0-0-0-3-3-3-0-0-0-3-3-3-0-0-3-3-|-5-5-5-5-5-5-5-5-5-5-5-5-5-5-5-5-|
Db| |-------3-3-3-------3-3-3-----3-3-|-5-5-5-5-5-5-5-5-5-5-5-5-5-5-5-5-|
      * * * * * * * * * * * * * * * *   * * * * * * * * * * * * * * * * |
      Tacky and irrelevant                  Permanent reminder that, oh |
                                (So what?)                              |
Guitar 2                                                                |
eb| |---------------------------------|---------------------------------|
Bb| |---------------------------------|---------------------------------|
Gb| |-----------------------------5/7-|---------------------------------|
Db| |-----------------------------x-x-|---------------------------------|
Ab| |-----------------------------3/5-|---------------------------------|
Db| |---------------------------------|---------------------------------|

Guitar 1
eb| |---------------------------------|---------------------------------|
Bb| |---------------------------------|---------------------------------|
Gb| |-2-2-2-------2-2-2-------2-2-----|---------------------------------|
Db| |-2-2-2-3-3-3-2-2-2-3-3-3-2-2-3-3-|-5-5-5-5-5-5-5-5-5-5-5-5-5-5-5-5-|
Ab| |-0-0-0-3-3-3-0-0-0-3-3-3-0-0-3-3-|-5-5-5-5-5-5-5-5-5-5-5-5-5-5-5-5-|
Db| |-------3-3-3-------3-3-3-----3-3-|-5-5-5-5-5-5-5-5-5-5-5-5-5-5-5-5-|
      * * * * * * * * * * * * * * * *   * * * * * * * * * * * * * * * * |
      Christ       We're studied                            Dragged you |
           (I study)                   (Up nightly)                     |
                                                                        |
Guitar 2                                                                |
eb| |---------------------------------|---------------------------------|
Bb| |---------------------------------|---------------------------------|
Gb| |---------------------------------|---------------------------------|
Db| |141514121512--15----15--1415--15-|141514121512--15----15--1415--15-|
Ab| |------------15--1514--12----12---|------------15--1514--12----12---|
Db| |---------------------------------|---------------------------------|
      * * * * * * * * * * * * * * * *   * * * * * * * * * * * * * * * *

Guitar 1
eb| |---------------------------------|---------------------------------|
Bb| |---------------------------------|---------------------------------|
Gb| |-2-2-2-------2-2-2-------2-2-----|---------------------------------|
Db| |-2-2-2-3-3-3-2-2-2-3-3-3-2-2-3-3-|-5-5-5-5-5-5-5-5-5-5-5-5---------|
Ab| |-0-0-0-3-3-3-0-0-0-3-3-3-0-0-3-3-|-5-5-5-5-5-5-5-5-5-5-5-5-x-5-x-5-|
Db| |-------3-3-3-------3-3-3-----3-3-|-5-5-5-5-5-5-5-5-5-5-5-5-3---3---|
      * * * * * * * * * * * * * * * *   * * * * * * * * * * * *         |
      Out  Into the streets  Before you buckle at your knees            |
                                                  (Buckle at your knees)|
                                                                        |
Guitar 2                                                                |
eb| |---------------------------------|---------------------------------|
Bb| |---------------------------------|---------------------------------|
Gb| |---------------------------------|---------------------------------|
Db| |141514121512--15----15--1415--15-|141514121512--15----15-----------|
Ab| |------------15--1514--12----12---|------------15--1514--12---------|
Db| |---------------------------------|---------------------------------|
      * * * * * * * * * * * * * * * *  (* * * * * * * * * * * *)

 ________________________
| Pre-Chorus (1:42-1:55) |
|________________________|

Guitar 1
eb| |---------------------------------|---------------------------------|
Bb| |---------------------------------|---------------------------------|
Gb| |14141414141414141212121212121212-|---------------------------------|
Db| |-x-x-x-x-x-x-x-x-x-x-x-x-x-x-x-x-|---------------------------------|
Ab| |12121212121212121010101010101010-|-x---5-----x-5-x-x-x-5-----x-5-x-|
Db| |---------------------------------|-3---------3---3-3-3-------3---3-|
          "What's it feel like to be a  ghost?"                         |
                                                (Louder now, louder now)|
                                                                        |
Guitar 2                                                                |
eb| |---------------------------------|---------------------------------|
Bb| |---------------------------------|---------------------------------|
Gb| |-2-2-2-2-2-2-2-2-2-2-2-2-2-2-2-2-|---------------------------------|
Db| |-2-2-2-2-2-2-2-2-2-2-2-2-2-2-2-2-|-3---3-----3---3-3-3-3-----3---3-|
Ab| |-0-0-0-0-0-0-0-0-0-0-0-0-0-0-0-0-|-3---3-----3---3-3-3-3-----3---3-|
Db| |---------------------------------|-3---3-----3---3-3-3-3-----3---3-|

Guitar 1
eb| |---------------------------------|---------------------------------|
Bb| |---------------------------------|---------------------------------|
Gb| |14141414141414141212121212121212-|---------------------------------|
Db| |-x-x-x-x-x-x-x-x-x-x-x-x-x-x-x-x-|-----------------------------0---|
Ab| |12121212121212121010101010101010-|-x---5-----x-5-x-x-x-5b------0---|
Db| |---------------------------------|-3---------3---3-3-3---------0---|
          "What's it feel like to be a  ghost?"                         |
                                                      (Now...)          |
                                                                        |
Guitar 2                                                                |
eb| |---------------------------------|---------------------------------|
Bb| |---------------------------------|---------------------------------|
Gb| |-2-2-2-2-2-2-2-2-2-2-2-2-2-2-2-2-|---------------------------------|
Db| |-2-2-2-2-2-2-2-2-2-2-2-2-2-2-2-2-|-3---3-----3---3-3-3-3-------0---|
Ab| |-0-0-0-0-0-0-0-0-0-0-0-0-0-0-0-0-|-3---3-----3---3-3-3-3-------0---|
Db| |---------------------------------|-3---3-----3---3-3-3-3-------0---|

 ____________________
| Chorus (1:55-2:08) |
|____________________|

Guitar 1 & 2
eb| |---------------------------------|---------------------------------|
Bb| |---------------------------------|---------------------------------|
Gb| |-2-2-2-2-2-2-2-2-2-2-2-2-2-2-2-2-|---------------------------------|
Db| |-2-2-2-2-2-2-2-2-2-2-2-2-2-2-2-2-|-3-3-3-3-3-3-3-3-3-3-3-3-3-3-3-3-|
Ab| |-0-0-0-0-0-0-0-0-0-0-0-0-0-0-0-0-|-3-3-3-3-3-3-3-3-3-3-3-3-3-3-3-3-|
Db| |---------------------------------|-3-3-3-3-3-3-3-3-3-3-3-3-3-3-3-3-|
      Are you up for, are you up for    this?
                                     (Well are you up for, are you up for)

Guitar 1
eb| |---------------------------------|---------------------------------|
Bb| |---------------------------------|---------------------------------|
Gb| |-2-2-2-2-2-2-2-2-2-2-2-2-2-2-2-2-|---------------------------------|
Db| |-2-2-2-2-2-2-2-2-2-2-2-2-2-2-2-2-|---------------------------------|
Ab| |-0-0-0-0-0-0-0-0-0-0-0-0-0-0-0-0-|-x---5-----x-5-x-x-x-5-x-x-x-5-x-|
Db| |---------------------------------|-3---------3---3-3-3---3-3-3---3-|
      Are you up for, are you up for    this?                           |
                                   (Well are you up for, are you up for)|
                                                                        |
Guitar 2                                                                |
eb| |---------------------------------|---------------------------------|
Bb| |---------------------------------|---------------------------------|
Gb| |-2-2-2-2-2-2-2-2-2-2-2-2-2-2-2-2-|---------------------------------|
Db| |-2-2-2-2-2-2-2-2-2-2-2-2-2-2-2-2-|-3--(3)----3---3-3-3---3-3-3---3-|
Ab| |-0-0-0-0-0-0-0-0-0-0-0-0-0-0-0-0-|-3--(3)----3---3-3-3---3-3-3---3-|
Db| |---------------------------------|-3--(3)----3---3-3-3---3-3-3---3-|

 ____________________
| Bridge (2:09-3:06) |
|____________________|

Guitar 1
eb| |---------------------------------|-x-------------------------------|
Bb| |---------------------------------|-5~------------------------------|
Gb| |---------------------------------|-5~------------------------------|
Db| |-----------0~--------------------|-5~------------------------------|
Ab| |-x-x-5-x-x-0~--------------------|-3~------------------------------|
Db| |-3-3---3-3-0~--------------------|-x-------------------------------|
                                                                        |
Guitar 2                                                                |
eb| |---------------------------------|---------------------------------|
Bb| |---------------------------------|---------------------------------|
Gb| |---------------------------------|---------------------------------|
Db| |-3-3---3-3-0---------------------|---------------------------------|
Ab| |-3-3---3-3-0---------------------|---------------------------------|
Db| |-3-3---3-3-0---------------------|---------------------------------|

Guitar 1
eb| |-------------------------3-------|---------------------------------|
Bb| |---------------------------1-0-1-|---------------------------------|
Gb| |-----------------------0---------|---------------------------------|
Db| |---------------------------------|---------------------------------|
Ab| |---------------------------------|---------------------------------|
Db| |---------------------------------|---------------------------------|

Guitar 1
eb| |-x-------------------------------|-x-------------------------------|
Bb| |-5~-(5)--(5)--(5)----------------|-5~------------------------------|
Gb| |-5~------------------------------|-5~------------------------------|
Db| |-5~------------------------------|-5~------------------------------|
Ab| |-3~------------------------------|-3~------------------------------|
Db| |-x-------------------------------|-x-------------------------------|
                               I said,  So   look   close   -ly   there |
                                                                        |
Guitar 2                                                                |
eb| |---------------------------------|---------------------------------|
Bb| |---------------------------------|-5-5-5-5-5-5-5-5-5-5-5-5-5-5-5-5-|
Gb| |---------------------------------|---------------------------------|
Db| |---------------------------------|---------------------------------|
Ab| |---------------------------------|---------------------------------|
Db| |---------------------------------|---------------------------------|

Guitar 1
eb| |---------------------------------|---------------------------------|
Bb| |---------------------------------|---------------------------------|
Gb| |---------------------------------|---------------------------------|
Db| |---------------------------------|---------------------------------|
Ab| |---------------------------------|---------------------------------|
Db| |---------------------------------|---------------------------------|
      might      be       some -thing    you    like        What was is |
                                                                        |
Guitar 2                                                                |
eb| |-----------------------------3-3-|-----------------------------3-3-|
Bb| |-5-5-5-5-5-5-5-5-5-5-5-5-5-5-----|-5-5-5-5-5-5-5-5-5-5-5-5-5-5-----|
Gb| |---------------------------------|---------------------------------|
Db| |---------------------------------|---------------------------------|
Ab| |---------------------------------|---------------------------------|
Db| |---------------------------------|---------------------------------|

Guitar 1
eb| |-x-------------------------------|-3~------------------------------|
Bb| |-5~------------------------------|-5~------------------------------|
Gb| |-5~------------------------------|-5~------------------------------|
Db| |-5~------------------------------|-3~------------------------------|
Ab| |-3~------------------------------|-3~------------------------------|
Db| |-x-------------------------------|-x-------------------------------|
      Like?                             Look so close it's been months  |
                        (Oh, and I...)                                  |
                                                                        |
Guitar 2                                                                |
eb| |---------------------------------|---------------------------------|
Bb| |-5-5-5-5-5-5-5-5-5-5-5-5-5-5-5-5-|-5-5-5-5-5-5-5-5-5-5-5-5-5-5-6-6-|
Gb| |---------------------------------|---------------------------------|
Db| |---------------------------------|---------------------------------|
Ab| |---------------------------------|---------------------------------|
Db| |---------------------------------|---------------------------------|

Guitar 1
eb| |---------------------------------|---------------------------------|
Bb| |---------------------------------|---------------------------------|
Gb| |---------------------------------|---------------------------------|
Db| |---------------------------------|---------------------------------|
Ab| |---------------------------------|---------------------------------|
Db| |---------------------------------|---------------------------------|
      Who      knows      if    I                         Will get this |
                                                                        |
Guitar 2                                                                |
eb| |---------------------------------|---------------------------------|
Bb| |-3-3-3-3-3-3-3-3-3-3-3-3-3-3/5-5-|-5-5-5-5-5-5-5-5-5-5-5-5-5-5-6-6-|
Gb| |---------------------------------|---------------------------------|
Db| |---------------------------------|---------------------------------|
Ab| |---------------------------------|---------------------------------|
Db| |---------------------------------|---------------------------------|

Guitar 1
eb| |-x-------------------------------|-3~------------------------------|
Bb| |-5~------------------------------|-5~------------------------------|
Gb| |-5~------------------------------|-5~------------------------------|
Db| |-5~------------------------------|-3~------------------------------|
Ab| |-3~------------------------------|-3~------------------------------|
Db| |-x-------------------------------|-x-------------------------------|
      Right...                          Look      close    -ly    there |
                        (Oh, and I...)                                  |
                                                                        |
Guitar 2                                                                |
eb| |---------------------------------|---------------------------------|
Bb| |---------------------------------|-5-5-5-5-5-5-5-5-5-5-5-5-5-5-6-6-|
Gb| |-5-5-5-5-5-5-5-5-5-5-5-5-5-5-5-5-|---------------------------------|
Db| |---------------------------------|---------------------------------|
Ab| |---------------------------------|---------------------------------|
Db| |---------------------------------|---------------------------------|

Guitar 1
eb| |---------------------------------|---------------------------------|
Bb| |---------------------------------|---------------------------------|
Gb| |---------------------------------|---------------------------------|
Db| |---------------------------------|---------------------------------|
Ab| |---------------------------------|---------------------------------|
Db| |---------------------------------|---------------------------------|
      might      be       some -thing    you    like        What was is |
                                                                        |
Guitar 2                                                                |
eb| |---------------------------------|---------------------------------|
Bb| |-3-3-3-3-3-3-3-3-3-3-3-3-3-3/5-5-|-5-5-5-5-5-5-5-5-5-5-5-5-5-5-6-6-|
Gb| |---------------------------------|---------------------------------|
Db| |---------------------------------|---------------------------------|
Ab| |---------------------------------|---------------------------------|
Db| |---------------------------------|---------------------------------|

Guitar 1
eb| |---------------------------------|---------------------------------|
Bb| |---------------------------------|---------------------------------|
Gb| |-5-5-5-5-7-7-7-7-9-9-9-910101010-|-9-9-9-9101010101212121213131313-|
Db| |-x-x-x-x-x-x-x-x-x-x-x-x-x-x-x-x-|-x-x-x-x-x-x-x-x-x-x-x-x-x-x-x-x-|
Ab| |-3-3-3-3-5-5-5-5-7-7-7-7-8-8-8-8-|-7-7-7-7-8-8-8-81010101012121212-|
Db| |---------------------------------|---------------------------------|
      Like?                                                             |
                                                                        |
Guitar 2                                                                |
eb| |---------------------------------|---------------------------------|
Bb| |-5-5-5-5-5-5-5-5-5-5-5-5-5-5-5-5-|-5-5-5-5-5-5-5-5-5-5-5-5-5-5-5-5-|
Gb| |---------------------------------|---------------------------------|
Db| |---------------------------------|---------------------------------|
Ab| |---------------------------------|---------------------------------|
Db| |---------------------------------|---------------------------------|

 _______________________
| Interlude (3:06-3:12) |
|_______________________|

Guitar 1
eb| |---------------------------------|---------------------------------|
Bb| |---------------------------------|---------------------------------|
Gb| |---------------------------------|---------------------------------|
Db| |---------------------------------|-----------------------------0---|
Ab| |-x--10-----x10-x-x-x10-----x10-x-|-x--10-----x10-x-x-x10-------0---|
Db| |-7---------7---7-7-7-------7---7-|-7---------7---7-7-7---------0---|

 ________________________
| Pre-Chorus (3:12-3:25) |
|________________________|

Guitar 1
eb| |---------------------------------|---------------------------------|
Bb| |---------------------------------|---------------------------------|
Gb| |14141414141414141212121212121212-|---------------------------------|
Db| |-x-x-x-x-x-x-x-x-x-x-x-x-x-x-x-x-|---------------------------------|
Ab| |12121212121212121010101010101010-|-x---5-----x-5-x-x-x-5-----x-5-x-|
Db| |---------------------------------|-3---------3---3-3-3-------3---3-|
          "What's it feel like to be a  ghost?"                         |
                                                (Louder now, louder now)|
                                                                        |
Guitar 2                                                                |
eb| |---------------------------------|---------------------------------|
Bb| |---------------------------------|---------------------------------|
Gb| |-2-2-2-2-2-2-2-2-2-2-2-2-2-2-2-2-|---------------------------------|
Db| |-2-2-2-2-2-2-2-2-2-2-2-2-2-2-2-2-|-3---3-----3---3-3-3-3-----3---3-|
Ab| |-0-0-0-0-0-0-0-0-0-0-0-0-0-0-0-0-|-3---3-----3---3-3-3-3-----3---3-|
Db| |---------------------------------|-3---3-----3---3-3-3-3-----3---3-|

Guitar 1
eb| |---------------------------------|---------------------------------|
Bb| |---------------------------------|---------------------------------|
Gb| |14141414141414141212121212121212-|---------------------------------|
Db| |-x-x-x-x-x-x-x-x-x-x-x-x-x-x-x-x-|-----------------------------0---|
Ab| |12121212121212121010101010101010-|-x---5-----x-5-x-x-x-5b------0---|
Db| |---------------------------------|-3---------3---3-3-3---------0---|
          "What's it feel like to be a  ghost?"                         |
                                                      (Now...)          |
                                                                        |
Guitar 2                                                                |
eb| |---------------------------------|---------------------------------|
Bb| |---------------------------------|---------------------------------|
Gb| |-2-2-2-2-2-2-2-2-2-2-2-2-2-2-2-2-|---------------------------------|
Db| |-2-2-2-2-2-2-2-2-2-2-2-2-2-2-2-2-|-3---3-----3---3-3-3-3-------0---|
Ab| |-0-0-0-0-0-0-0-0-0-0-0-0-0-0-0-0-|-3---3-----3---3-3-3-3-------0---|
Db| |---------------------------------|-3---3-----3---3-3-3-3-------0---|

 ____________________
| Chorus (3:26-3:25) |
|____________________|

Guitar 1 & 2
eb| |---------------------------------|---------------------------------|
Bb| |---------------------------------|---------------------------------|
Gb| |-2-2-2-2-2-2-2-2-2-2-2-2-2-2-2-2-|---------------------------------|
Db| |-2-2-2-2-2-2-2-2-2-2-2-2-2-2-2-2-|-3-3-3-3-3-3-3-3-3-3-3-3-3-3-3-3-|
Ab| |-0-0-0-0-0-0-0-0-0-0-0-0-0-0-0-0-|-3-3-3-3-3-3-3-3-3-3-3-3-3-3-3-3-|
Db| |---------------------------------|-3-3-3-3-3-3-3-3-3-3-3-3-3-3-3-3-|
           Are you up for, are you up for    this?
                                     (Well are you up for, are you up for)
Guitar 1 & 2
eb| |---------------------------------|---------------------------------|
Bb| |---------------------------------|---------------------------------|
Gb| |-2-2-2-2-2-2-2-2-2-2-2-2-2-2-2-2-|---------------------------------|
Db| |-2-2-2-2-2-2-2-2-2-2-2-2-2-2-2-2-|-3-3-3-3-3-3-3-3-3-3-3-3-----0---|
Ab| |-0-0-0-0-0-0-0-0-0-0-0-0-0-0-0-0-|-3-3-3-3-3-3-3-3-3-3-3-3-----0---|
Db| |---------------------------------|-3-3-3-3-3-3-3-3-3-3-3-3-----0---|
           Are you up for, are you up for    this?
                                     (Well are you up for, are you up for)


 ___________________
| Outro (3:38-3:47) |
|___________________|

Guitar 1
e| |---------------------------------|---------------------------------|
B| |---------------------------------|---------------------------------|
G| |---------------------------------|---------------------------------|
D| |---------------------------------|-7-------------------------------|
A| |-x--10-----x10-x-x-x10-----x10-x-|-7-------------------------------|
E| |-7---------7---7-7-7-------7---7-|-7-------------------------------|


 _________________________________
| Liar (It Takes One to Know One) |
|_________________________________|

Tuning: Half-Step Down (Eb Bb Gb Db Ab Eb)
                       (D# A# F# C# G# D#)
Guitar 1- Slight Distortion
Guitar 2- Distortion


 ___________________
| Intro (0:00-0:15) |
|___________________|

Guitar 1
eb| |---------------------------------|---------------------------------|
Bb| |---------------------------------|---------------------------------|
Gb| |---------------------------------|---------------------------------|
Db| |---------------------------------|---------------------------------|
Ab| |---------------------------------|---------------------------------|
Eb| |---------------------------------|---------------------------------|

Guitar 1
eb| |---------------------------------|---------------------------------|
Bb| |---------------------------------|---------------------------------|
Gb| |-5-5-5-5-5-5-5-5-5-5-5-5-7-7-7-7-|-9-9-9-9-9-9-9-9-9-9-9-910101010-|
Db| |-7-7-7-7-7-7-7-7-7-7-7-7-9-9-9-9-|10101010101010101010101012121212-|
Ab| |---------------------------------|---------------------------------|
Eb| |---------------------------------|---------------------------------|

Guitar 1
eb| |---------------------------------|---------------------------------|
Bb| |---------------------------------|---------------------------------|
Gb| |-5-5-5-5-5-5-5-5-4-4-4-4-4-4-4-4-|-2-2-2-2-2-2-2-2-1-1-1-1-4-4-4-4-|
Db| |-7-7-7-7-7-7-7-7-5-5-5-5-5-5-5-5-|-3-3-3-3-3-3-3-3-2-2-2-2-6-6-6-6-|
Ab| |---------------------------------|---------------------------------|
Eb| |---------------------------------|---------------------------------|
                                                                All our
 __________________
| Verse 0:15-0:36) |
|__________________|

Guitar 1
eb| |---------------------------------|---------------------------------|
Bb| |---------------------------------|---------------------------------|
Gb| |-5-5-5-5-5-5-5-5-5-5-5-5-7-7-7-7-|-9-9-9-9-9-9-9-9-9-9-9-910101010-|
Db| |-7-7-7-7-7-7-7-7-7-7-7-7-9-9-9-9-|10101010101010101010101012121212-|
Ab| |---------------------------------|---------------------------------|
Eb| |---------------------------------|---------------------------------|
      Secrets they are tailored trouble draped loose now around your hips

Guitar 1
eb| |---------------------------------|---------------------------------|
Bb| |---------------------------------|---------------------------------|
Gb| |-5-5-5-5-5-5-5-5-4-4-4-4-4-4-4-4-|-2-2-2-2-2-2-2-2-1-1-1-1-4-4-4-4-|
Db| |-7-7-7-7-7-7-7-7-5-5-5-5-5-5-5-5-|-3-3-3-3-3-3-3-3-2-2-2-2-6-6-6-6-|
Ab| |---------------------------------|---------------------------------|
Eb| |---------------------------------|---------------------------------|
      Your  spotless   instincts are    valid     we     co-exist       |
                                                                        |
Guitar 2                                                                |
eb| |---------------------------------|---------------------------------|
Bb| |---------------------------------|-------------------------x-x-x-x-|
Gb| |---------------------------------|-------------------------x-x-x-x-|
Db| |---------------------------------|-------------------------x-x-x-x-|
Ab| |---------------------------------|-------------------------x-x-x-x-|
Eb| |---------------------------------|---------------------------------|

Guitar 1
eb| |---------------------------------|---------------------------------|
Bb| |---------------------------------|---------------------------------|
Gb| |-5-5-5-5-5-5-5-5-5-5-5-5-7-7-7-7-|-9-9-9-9-9-9-9-9-9-9-9-910101010-|
Db| |-7-7-7-7-7-7-7-7-7-7-7-7-9-9-9-9-|10101010101010101010101012121212-|
Ab| |---------------------------------|---------------------------------|
Eb| |---------------------------------|---------------------------------|
      Got twenty six days to work with  Got twenty six days to work with|
                             (Got twenty six days...)         (It moves |
                                                                        |
Guitar 2                                                                |
eb| |---------------------------------|---------------------------------|
Bb| |10------10------10-------9-------|10------10---------------x-x-x-x-|
Gb| |-9-------9-------9-------9-------|-9-------9---------------x-x-x-x-|
Db| |10------10------10------10-------|10------10---------------x-x-x-x-|
Ab| |---------------------------------|-------------------------x-x-x-x-|
Eb| |---------------------------------|---------------------------------|

Guitar 1
eb| |---------------------------------|---------------------------------|
Bb| |---------------------------------|---------------------------------|
Gb| |-5-5-5-5-5-5-5-5-4-4-4-4-4-4-4-4-|-2-2-2-2-2-2-2-2-1-1-1-1-4-4-4-4-|
Db| |-7-7-7-7-7-7-7-7-5-5-5-5-5-5-5-5-|-3-3-3-3-3-3-3-3-2-2-2-2-6-6-6-6-|
Ab| |---------------------------------|---------------------------------|
Eb| |---------------------------------|---------------------------------|
               to see    what    all     gets      done      I'm an ad  |
      it    moves,    it    moves...   )                                |
                                                                        |
Guitar 2                                                                |
eb| |---------------------------------|---------------------------------|
Bb| |10------10-------9-------9-------|-7-------7-------9---------------|
Gb| |-9-------9-------9-------9-------|-7-------7-------8---------------|
Db| |10------10------10------10-------|-8-------8-------9---------------|
Ab| |---------------------------------|---------------------------------|
Eb| |---------------------------------|---------------------------------|

 ________________________
| Pre-Chorus (0:36-0:46) |
|________________________|

Guitar 1
eb| |---------------------------------|---------------------------------|
Bb| |---------------------------------|---------------------------------|
Gb| |---------------------------------|---------------------------------|
Db| |-3-3-3-3-3-3-3-3-6-6-6-6-6-6-6-6-|-7-7-7-7-7-7-7-7-7-7-7-7-5-5-5-5-|
Ab| |-3-3-3-3-3-3-3-3-7-7-7-7-7-7-7-7-|-7-7-7-7-7-7-7-7-7-7-7-7-5-5-5-5-|
Eb| |-1-1-1-1-1-1-1-1-4-4-4-4-4-4-4-4-|-5-5-5-5-5-5-5-5-5-5-5-5-3-3-3-3-|
      -dict for dramatics I confuse the two for love    You can tell me |
                                                        that you don't  |
                                                                        |
Guitar 2                                                                |
eb| |---------------------------------|---------------------------------|
Bb| |---------------------------------|---------------------------------|
Gb| |-5-5-5-5-5-5-5-5-9-9-9-9-7-7-7-7-|-9-9-9-9-9-9-9-9-9-9-9-9-7-7-7-7-|
Db| |-x-x-x-x-x-x-x-x-x-x-x-x-x-x-x-x-|-x-x-x-x-x-x-x-x-x-x-x-x-x-x-x-x-|
Ab| |-3-3-3-3-3-3-3-3-7-7-7-7-5-5-5-5-|-7-7-7-7-7-7-7-7-7-7-7-7-5-5-5-5-|
Eb| |---------------------------------|---------------------------------|

Guitar 1
eb| |---------------------------------|---------------------------------|
Bb| |---------------------------------|---------------------------------|
Gb| |---------------------------------|---------------------------------|
Db| |-3-3-3-3-3-3-3-3-6-6-6-6-6-6-6-6-|-7-7-7-7-7-7-7-7-----------------|
Ab| |-3-3-3-3-3-3-3-3-7-7-7-7-7-7-7-7-|-7-7-7-7-7-7-7-7-///////-\\\\\\\-|
Eb| |-1-1-1-1-1-1-1-1-4-4-4-4-4-4-4-4-|-5-5-5-5-5-5-5-5-\\\\\\\-///////-|
      Beg...                                                            |
     (Beg...)                                                           |
                                                                        |
Guitar 2                                                                |
eb| |---------------------------------|---------------------------------|
Bb| |---------------------------------|---------------------------------|
Gb| |-5-5-5-5-5-5-5-5-9-9-9-9-7-7-7-7-|-9-9-9-9-9-9-9-9-----------------|
Db| |-x-x-x-x-x-x-x-x-x-x-x-x-x-x-x-x-|-x-x-x-x-x-x-x-x-----------------|
Ab| |-3-3-3-3-3-3-3-3-7-7-7-7-5-5-5-5-|-7-7-7-7-7-7-7-7-///////-\\\\\\\-|
Eb| |---------------------------------|-----------------\\\\\\\-///////-|

 ____________________
| Chorus (0:46-1:06) |
|____________________|

Guitar 1
eb| |---------------------------------|---------------------------------|
Bb| |o--------------------------------|---------------------------------|
Gb| |-5-5-5-5-5-5-5-5-5-5-5-5-7-7-7-7-|-9-9-9-9-9-9-9-9-9-9-9-910101010-|
Db| |-7-7-7-7-7-7-7-7-7-7-7-7-9-9-9-9-|10101010101010101010101012121212-|
Ab| |o--------------------------------|---------------------------------|
Eb| |---------------------------------|---------------------------------|
   1. Liar                              If we're keeping score          |
                     (Liar)                                             |
   2. Liar                              If we're keeping score          |
                     (Liar)                                             |
                                                                        |
Guitar 2                                                                |
eb| |---------------------------------|---------------------------------|
Bb| |o--------------------------------|---------------------------------|
Gb| |---------------------------------|-5-5-5-5-5-5-5-5-5-5-5-5-7-7-7-7-|
Db| |-7-7-7-7-7-7-7-7-7-7-7-7-5-5-5-5-|-5-5-5-5-5-5-5-5-5-5-5-5-7-7-7-7-|
Ab| |o7-7-7-7-7-7-7-7-7-7-7-7-5-5-5-5-|-3-3-3-3-3-3-3-3-3-3-3-3-5-5-5-5-|
Eb| |-5-5-5-5-5-5-5-5-5-5-5-5-3-3-3-3-|---------------------------------|

Guitar 1
eb| |---------------------------------|---------------------------------|
Bb| |---------------------------------|--------------------------------o|
Gb| |-9-9-9-9-9-9-9-9-7-7-7-7-7-7-7-9-|-5-5-5-5-5-5-5-5-5-5-5-5-5-5-5-5-|
Db| |-x-x-x-x-x-x-x-x-x-x-x-x-x-x-x-x-|-x-x-x-x-x-x-x-x-x-x-x-x-x-x-x-x-|
Ab| |-7-7-7-7-7-7-7-7-5-5-5-5-5-5-5-7-|-3-3-3-3-3-3-3-3-3-3-3-3-3-3-3-3o|
Eb| |---------------------------------|---------------------------------|
   1. We're all choir boys at best                                      |
                                        (Intrusive and arrogant)        |
   2. We're all choir boys at best                                      |
                                        (Intrusive and arrogant)        |
                                                                        |
Guitar 2                                                                |
eb| |---------------------------------|---------------------------------|
Bb| |---------------------------------|--------------------------------o|
Gb| |---------------------------------|---------------------------------|
Db| |-7-7-7-7-7-7-7-7-5-5-5-5-5-5-5-5-|-3-3-3-3-3-3-3-3-3-3-3-3-3-3-3-3-|
Ab| |-7-7-7-7-7-7-7-7-5-5-5-5-5-5-5-5-|-3-3-3-3-3-3-3-3-3-3-3-3-3-3-3-3o|
Eb| |-5-5-5-5-5-5-5-5-3-3-3-3-3-3-3-3-|-1-1-1-1-1-1-1-1-1-1-1-1-1-1-1-1-|

 _______________________
| Interlude (1:06-1:12) |
|_______________________|

Guitar 1
eb| |-0~------------------------------|---------------------------------|
Bb| |-0~------------------------------|---------------------------------|
Gb| |-0~------------------------------|---------------------------------|
Db| |-7~------------------------------|---------------------------------|
Ab| |-7~------------------------------|---------------------------------|
Eb| |-5~------------------------------|---------------------------------|
      Got twenty six days to work with                        Then back
                                       (Got twenty six days...)

 ___________________
| Verse (1:12-1:32) |
|___________________|

Guitar 1
eb| |---------------------------------|---------------------------------|
Bb| |---------------------------------|---------------------------------|
Gb| |-5-5-5-5-5-5-5-5-5-5-5-5-7-7-7-7-|-9-9-9-9-9-9-9-9-9-9-9-910101010-|
Db| |-7-7-7-7-7-7-7-7-7-7-7-7-9-9-9-9-|10101010101010101010101012121212-|
Ab| |---------------------------------|---------------------------------|
Eb| |---------------------------------|---------------------------------|
      On the island that you sweat by   Still barely can afford...      |
                                                                        |
Guitar 2                                                                |
eb| |---------------------------------|---------------------------------|
Bb| |10------10------10-------9-------|10------10---------------x-x-x-x-|
Gb| |-9-------9-------9-------9-------|-9-------9---------------x-x-x-x-|
Db| |10------10------10------10-------|10------10---------------x-x-x-x-|
Ab| |---------------------------------|-------------------------x-x-x-x-|
Eb| |---------------------------------|---------------------------------|

Guitar 1
eb| |---------------------------------|---------------------------------|
Bb| |---------------------------------|---------------------------------|
Gb| |-5-5-5-5-5-5-5-5-4-4-4-4-4-4-4-4-|-2-2-2-2-2-2-2-2-1-1-1-1-4-4-4-4-|
Db| |-7-7-7-7-7-7-7-7-5-5-5-5-5-5-5-5-|-3-3-3-3-3-3-3-3-2-2-2-2-6-6-6-6-|
Ab| |---------------------------------|---------------------------------|
Eb| |---------------------------------|---------------------------------|
      It's still a question of          how long will this hold?        |
                                       (how long will this hold?)       |
                                                                        |
Guitar 2                                                                |
eb| |---------------------------------|---------------------------------|
Bb| |10------10-------9-------9-------|-7-------7-------9-------x-x-x-x-|
Gb| |-9-------9-------9-------9-------|-7-------7-------8-------x-x-x-x-|
Db| |10------10------10------10-------|-8-------8-------9-------x-x-x-x-|
Ab| |---------------------------------|-------------------------x-x-x-x-|
Eb| |---------------------------------|---------------------------------|

Guitar 1
eb| |---------------------------------|---------------------------------|
Bb| |---------------------------------|---------------------------------|
Gb| |-5-5-5-5-5-5-5-5-5-5-5-5-7-7-7-7-|-9-9-9-9-9-9-9-9-9-9-9-910101010-|
Db| |-7-7-7-7-7-7-7-7-7-7-7-7-9-9-9-9-|10101010101010101010101012121212-|
Ab| |---------------------------------|---------------------------------|
Eb| |---------------------------------|---------------------------------|
      Is it any  now that we are        Don't you go there not here not |
      different                                                     now |
                                                                        |
Guitar 2                                                                |
eb| |---------------------------------|---------------------------------|
Bb| |10------10------10-------9-------|10------10---------------x-x-x-x-|
Gb| |-9-------9-------9-------9-------|-9-------9---------------x-x-x-x-|
Db| |10------10------10------10-------|10------10---------------x-x-x-x-|
Ab| |---------------------------------|-------------------------x-x-x-x-|
Eb| |---------------------------------|---------------------------------|

Guitar 1
eb| |---------------------------------|---------------------------------|
Bb| |---------------------------------|---------------------------------|
Gb| |-5-5-5-5-5-5-5-5-4-4-4-4-4-4-4-4-|-2-2-2-2-2-2-2-2-1-1-1-1-4-4-4-4-|
Db| |-7-7-7-7-7-7-7-7-5-5-5-5-5-5-5-5-|-3-3-3-3-3-3-3-3-2-2-2-2-6-6-6-6-|
Ab| |---------------------------------|---------------------------------|
Eb| |---------------------------------|---------------------------------|
                                        Not here not now...   I'm an ad |
      (It    moves,   it    moves,   it   moves...   )                  |
                                                                        |
Guitar 2                                                                |
eb| |---------------------------------|---------------------------------|
Bb| |10------10-------9-------9-------|-7-------7-------9-----9---9---9-|
Gb| |-9-------9-------9-------9-------|-7-------7-------8-----8---8---8-|
Db| |10------10------10------10-------|-8-------8-------9-----9---9---9-|
Ab| |---------------------------------|---------------------------------|
Eb| |---------------------------------|---------------------------------|

 ________________________
| Pre-Chorus (1:32-1:42) |
|________________________|

Guitar 1
eb| |---------------------------------|---------------------------------|
Bb| |---------------------------------|---------------------------------|
Gb| |---------------------------------|---------------------------------|
Db| |-3-3-3-3-3-3-3-3-6-6-6-6-6-6-6-6-|-7-7-7-7-7-7-7-7-7-7-7-7-5-5-5-5-|
Ab| |-3-3-3-3-3-3-3-3-7-7-7-7-7-7-7-7-|-7-7-7-7-7-7-7-7-7-7-7-7-5-5-5-5-|
Eb| |-1-1-1-1-1-1-1-1-4-4-4-4-4-4-4-4-|-5-5-5-5-5-5-5-5-5-5-5-5-3-3-3-3-|
      -dict for dramatics I confuse the two for love    You can tell me |
                                                        that you don't  |
                                                                        |
Guitar 2                                                                |
eb| |---------------------------------|---------------------------------|
Bb| |---------------------------------|---------------------------------|
Gb| |-5-5-5-5-5-5-5-5-9-9-9-9-7-7-7-7-|-9-9-9-9-9-9-9-9-9-9-9-9-7-7-7-7-|
Db| |-x-x-x-x-x-x-x-x-x-x-x-x-x-x-x-x-|-x-x-x-x-x-x-x-x-x-x-x-x-x-x-x-x-|
Ab| |-3-3-3-3-3-3-3-3-7-7-7-7-5-5-5-5-|-7-7-7-7-7-7-7-7-7-7-7-7-5-5-5-5-|
Eb| |---------------------------------|---------------------------------|

Guitar 1
eb| |---------------------------------|---------------------------------|
Bb| |---------------------------------|---------------------------------|
Gb| |---------------------------------|---------------------------------|
Db| |-3-3-3-3-3-3-3-3-6-6-6-6-6-6-6-6-|-7-7-7-7-7-7-7-7-----------------|
Ab| |-3-3-3-3-3-3-3-3-7-7-7-7-7-7-7-7-|-7-7-7-7-7-7-7-7-///////-\\\\\\\-|
Eb| |-1-1-1-1-1-1-1-1-4-4-4-4-4-4-4-4-|-5-5-5-5-5-5-5-5-\\\\\\\-///////-|
      Beg...                                                            |
     (Beg...)                                                           |
                                                                        |
Guitar 2                                                                |
eb| |---------------------------------|---------------------------------|
Bb| |---------------------------------|---------------------------------|
Gb| |-5-5-5-5-5-5-5-5-9-9-9-9-7-7-7-7-|-9-9-9-9-9-9-9-9-----------------|
Db| |-x-x-x-x-x-x-x-x-x-x-x-x-x-x-x-x-|-x-x-x-x-x-x-x-x-----------------|
Ab| |-3-3-3-3-3-3-3-3-7-7-7-7-5-5-5-5-|-7-7-7-7-7-7-7-7-///////-\\\\\\\-|
Eb| |---------------------------------|-----------------\\\\\\\-///////-|

 ____________________
| Chorus (1:42-2:03) |
|____________________|

Guitar 1
eb| |---------------------------------|---------------------------------|
Bb| |o--------------------------------|---------------------------------|
Gb| |-5-5-5-5-5-5-5-5-5-5-5-5-7-7-7-7-|-9-9-9-9-9-9-9-9-9-9-9-910101010-|
Db| |-7-7-7-7-7-7-7-7-7-7-7-7-9-9-9-9-|10101010101010101010101012121212-|
Ab| |o--------------------------------|---------------------------------|
Eb| |---------------------------------|---------------------------------|
   1. Liar                              If we're keeping score          |
                     (Liar)                                             |
   2. Liar                              If we're keeping score          |
                     (Liar)                                             |
                                                                        |
Guitar 2                                                                |
eb| |---------------------------------|---------------------------------|
Bb| |o--------------------------------|---------------------------------|
Gb| |---------------------------------|-5-5-5-5-5-5-5-5-5-5-5-5-7-7-7-7-|
Db| |-7-7-7-7-7-7-7-7-7-7-7-7-5-5-5-5-|-5-5-5-5-5-5-5-5-5-5-5-5-7-7-7-7-|
Ab| |o7-7-7-7-7-7-7-7-7-7-7-7-5-5-5-5-|-3-3-3-3-3-3-3-3-3-3-3-3-5-5-5-5-|
Eb| |-5-5-5-5-5-5-5-5-5-5-5-5-3-3-3-3-|---------------------------------|

Guitar 1
eb| |---------------------------------|---------------------------------|
Bb| |---------------------------------|--------------------------------o|
Gb| |-9-9-9-9-9-9-9-9-7-7-7-7-7-7-7-9-|-5-5-5-5-5-5-5-5-5-5-5-5-5-5-5-5-|
Db| |-x-x-x-x-x-x-x-x-x-x-x-x-x-x-x-x-|-x-x-x-x-x-x-x-x-x-x-x-x-x-x-x-x-|
Ab| |-7-7-7-7-7-7-7-7-5-5-5-5-5-5-5-7-|-3-3-3-3-3-3-3-3-3-3-3-3-3-3-3-3o|
Eb| |---------------------------------|---------------------------------|
   1. We're all choir boys at best                                      |
                                        (Intrusive and arrogant)        |
   2. We're all choir boys at best                                      |
                                        (Intrusive and arrogant)        |
                                                                        |
Guitar 2                                                                |
eb| |---------------------------------|---------------------------------|
Bb| |---------------------------------|--------------------------------o|
Gb| |---------------------------------|---------------------------------|
Db| |-7-7-7-7-7-7-7-7-5-5-5-5-5-5-5-5-|-3-3-3-3-3-3-3-3-3-3-3-3-3-3-3-3-|
Ab| |-7-7-7-7-7-7-7-7-5-5-5-5-5-5-5-5-|-3-3-3-3-3-3-3-3-3-3-3-3-3-3-3-3o|
Eb| |-5-5-5-5-5-5-5-5-3-3-3-3-3-3-3-3-|-1-1-1-1-1-1-1-1-1-1-1-1-1-1-1-1-|

 ____________________
| Bridge (2:03-2:26) |
|____________________|

Guitar 1
eb| |---------------------------------|---------------------------------|
Bb| |---------------------------------|---------------------------------|
Gb| |-----------------4~--------------|-8-8-8-8-8-8-8-8-8-8-8-810101010-|
Db| |-6~--------------4~--------------|10101010101010101010101012121212-|
Ab| |-6~--------------2~--------------|---------------------------------|
Eb| |-4~------------------------------|---------------------------------|
      We're all choir boys at best                                      |
                                                                        |
Guitar 2                                                                |
eb| |---------------------------------|---------------------------------|
Bb| |---------------------------------|---------------------------------|
Gb| |-----------------4~--------------|---------------------------------|
Db| |-6~--------------4~--------------|10101010101010101010101010101010-|
Ab| |-6~--------------2~--------------|-x-x-x-x-x-x-x-x-x-x-x-x-x-x-x-x-|
Eb| |-4~------------------------------|-8-8-8-8-8-8-8-8-8-8-8-8-8-8-8-8-|

Guitar 1
eb| |---------------------------------|---------------------------------|
Bb| |---------------------------------|---------------------------------|
Gb| |12121212121212121212121213131313-|-8-8-8-8-8-8-8-8-7-7-7-7-7-7-7-7-|
Db| |13131313131313131313131315151515-|1010101010101010-8-8-8-8-8-8-8-8-|
Ab| |---------------------------------|---------------------------------|
Eb| |---------------------------------|---------------------------------|
                                                                        |
Guitar 2                                                                |
eb| |---------------------------------|---------------------------------|
Bb| |---------------------------------|---------------------------------|
Gb| |---------------------------------|---------------------------------|
Db| |10101010101010101010101010101010-|1010101010101010-8-8-8-8-8-8-8-8-|
Ab| |-x-x-x-x-x-x-x-x-x-x-x-x-x-x-x-x-|-x-x-x-x-x-x-x-x-x-x-x-x-x-x-x-x-|
Eb| |-8-8-8-8-8-8-8-8-8-8-8-8-8-8-8-8-|-8-8-8-8-8-8-8-8-6-6-6-6-6-6-6-6-|

Guitar 1
eb| |---------------------------------|---------------------------------|
Bb| |---------------------------------|---------------------------------|
Gb| |-5-5-5-5-5-5-5-5-5-5-5-5-7-7-7-7-|-8-8-8-8-8-8-8-8-8-8-8-810101010-|
Db| |-6-6-6-6-6-6-6-6-6-6-6-6-8-8-8-8-|10101010101010101010101012121212-|
Ab| |---------------------------------|---------------------------------|
Eb| |---------------------------------|---------------------------------|
                                                                        |
Guitar 2                                                                |
eb| |---------------------------------|---------------------------------|
Bb| |---------------------------------|---------------------------------|
Gb| |---------------------------------|---------------------------------|
Db| |-6-6-6-6-6-6-6-6-6-6-6-6-8-8-8-8-|10101010101010101010101010101010-|
Ab| |-x-x-x-x-x-x-x-x-x-x-x-x-x-x-x-x-|-x-x-x-x-x-x-x-x-x-x-x-x-x-x-x-x-|
Eb| |-4-4-4-4-4-4-4-4-4-4-4-4-6-6-6-6-|-8-8-8-8-8-8-8-8-8-8-8-8-8-8-8-8-|

Guitar 1
eb| |---------------------------------|---------------------------------|
Bb| |---------------------------------|---------------------------------|
Gb| |12121212121212121212121213131313-|-8-8-8-8-8-8-8-8-7-7-7-7-7-7-7-7-|
Db| |13131313131313131313131315151515-|1010101010101010-8-8-8-8-8-8-8-8-|
Ab| |---------------------------------|---------------------------------|
Eb| |---------------------------------|---------------------------------|
                                                                        |
Guitar 2                                                                |
eb| |---------------------------------|---------------------------------|
Bb| |---------------------------------|---------------------------------|
Gb| |---------------------------------|---------------------------------|
Db| |10101010101010101010101010101010-|1010101010101010-8-8-8-8-8-8-8-8-|
Ab| |-x-x-x-x-x-x-x-x-x-x-x-x-x-x-x-x-|-x-x-x-x-x-x-x-x-x-x-x-x-x-x-x-x-|
Eb| |-8-8-8-8-8-8-8-8-8-8-8-8-8-8-8-8-|-8-8-8-8-8-8-8-8-6-6-6-6-6-6-6-6-|

Guitar 1
eb| |---------------------------------|
Bb| |---------------------------------|
Gb| |-5-5-5-5-5-5-5-5-5-5-5-5-5-5-5-5-|
Db| |-6-6-6-6-6-6-6-6-6-6-6-6-6-6-6-6-|
Ab| |---------------------------------|
Eb| |---------------------------------|
                                      |
Guitar 2                              |
eb| |---------------------------------|
Bb| |---------------------------------|
Gb| |---------------------------------|
Db| |-6-6-6-6-6-6-6-6-6-6-6-6-6-6-6-6-|
Ab| |-x-x-x-x-x-x-x-x-x-x-x-x-x-x-x-x-|
Eb| |-4-4-4-4-4-4-4-4-4-4-4-4-4-4-4-4-|

 ____________________
| Chorus (2:26-2:46) |
|____________________|

Guitar 1
eb| |---------------------------------|---------------------------------|
Bb| |o--------------------------------|---------------------------------|
Gb| |-5-5-5-5-5-5-5-5-5-5-5-5-7-7-7-7-|-9-9-9-9-9-9-9-9-9-9-9-910101010-|
Db| |-7-7-7-7-7-7-7-7-7-7-7-7-9-9-9-9-|10101010101010101010101012121212-|
Ab| |o--------------------------------|---------------------------------|
Eb| |---------------------------------|---------------------------------|
   1. Liar                              If we're keeping score          |
                     (Liar)                                             |
   2. Liar                              If we're keeping score          |
                     (Liar)                                             |
                                                                        |
Guitar 2                                                                |
eb| |---------------------------------|---------------------------------|
Bb| |o--------------------------------|---------------------------------|
Gb| |---------------------------------|-5-5-5-5-5-5-5-5-5-5-5-5-7-7-7-7-|
Db| |-7-7-7-7-7-7-7-7-7-7-7-7-5-5-5-5-|-5-5-5-5-5-5-5-5-5-5-5-5-7-7-7-7-|
Ab| |o7-7-7-7-7-7-7-7-7-7-7-7-5-5-5-5-|-3-3-3-3-3-3-3-3-3-3-3-3-5-5-5-5-|
Eb| |-5-5-5-5-5-5-5-5-5-5-5-5-3-3-3-3-|---------------------------------|

Guitar 1
eb| |---------------------------------|---------------------------------|
Bb| |---------------------------------|--------------------------------o|
Gb| |-9-9-9-9-9-9-9-9-7-7-7-7-7-7-7-9-|-5-5-5-5-5-5-5-5-5-5-5-5-5-5-5-5-|
Db| |-x-x-x-x-x-x-x-x-x-x-x-x-x-x-x-x-|-x-x-x-x-x-x-x-x-x-x-x-x-x-x-x-x-|
Ab| |-7-7-7-7-7-7-7-7-5-5-5-5-5-5-5-7-|-3-3-3-3-3-3-3-3-3-3-3-3-3-3-3-3o|
Eb| |---------------------------------|---------------------------------|
   1. We're all choir boys at best                                      |
                                        (Intrusive and arrogant)        |
   2. We're all choir boys at best                                      |
                                        (Intrusive and arrogant)        |
                                                                        |
Guitar 2                                                                |
eb| |---------------------------------|---------------------------------|
Bb| |---------------------------------|--------------------------------o|
Gb| |---------------------------------|---------------------------------|
Db| |-7-7-7-7-7-7-7-7-5-5-5-5-5-5-5-5-|-3-3-3-3-3-3-3-3-3-3-3-3-3-3-3-3-|
Ab| |-7-7-7-7-7-7-7-7-5-5-5-5-5-5-5-5-|-3-3-3-3-3-3-3-3-3-3-3-3-3-3-3-3o|
Eb| |-5-5-5-5-5-5-5-5-3-3-3-3-3-3-3-3-|-1-1-1-1-1-1-1-1-1-1-1-1-1-1-1-1-|

 ___________________
| Outro (2:46-3:09) |
|___________________|

Guitar 1
eb| |---------------------------------|---------------------------------|
Bb| |---------------------------------|---------------------------------|
Gb| |-5-5-5-5-5-5-5-5-5-5-5-5-7-7-7-7-|-9-9-9-9-9-9-9-9-9-9-9-910101010-|
Db| |-7-7-7-7-7-7-7-7-7-7-7-7-9-9-9-9-|10101010101010101010101012121212-|
Ab| |---------------------------------|---------------------------------|
Eb| |---------------------------------|---------------------------------|
      Liar                              Liar                            |
                     (Liar)                            (Liar)           |
                                                                        |
Guitar 2                                                                |
eb| |---------------------------------|---------------------------------|
Bb| |---------------------------------|---------------------------------|
Gb| |---------------------------------|-5-5-5-5-5-5-5-5-5-5-5-5-7-7-7-7-|
Db| |-7-7-7-7-7-7-7-7-7-7-7-7-5-5-5-5-|-5-5-5-5-5-5-5-5-5-5-5-5-7-7-7-7-|
Ab| |-7-7-7-7-7-7-7-7-7-7-7-7-5-5-5-5-|-3-3-3-3-3-3-3-3-3-3-3-3-5-5-5-5-|
Eb| |-5-5-5-5-5-5-5-5-5-5-5-5-3-3-3-3-|---------------------------------|

Guitar 1
eb| |---------------------------------|---------------------------------|
Bb| |---------------------------------|---------------------------------|
Gb| |-5-5-5-5-5-5-5-5-4-4-4-4-4-4-4-4-|-2-2-2-2-2-2-2-2-1-1-1-1-----4---|
Db| |-7-7-7-7-7-7-7-7-5-5-5-5-5-5-5-5-|-3-3-3-3-3-3-3-3-2-2-2-2-6---4---|
Ab| |---------------------------------|-------------------------6---2---|
Eb| |---------------------------------|-------------------------4-------|
      It      takes     one     to      know    one                     |
                                                                        |
Guitar 2                                                                |
eb| |---------------------------------|---------------------------------|
Bb| |---------------------------------|---------------------------------|
Gb| |---------------------------------|-----------------------------4---|
Db| |-7-7-7-7-7-7-7-7-5-5-5-5-5-5-5-5-|-3-3-3-3-3-3-3-3-3-3-3-3-6---4---|
Ab| |-7-7-7-7-7-7-7-7-5-5-5-5-5-5-5-5-|-3-3-3-3-3-3-3-3-3-3-3-3-6---2---|
Eb| |-5-5-5-5-5-5-5-5-3-3-3-3-3-3-3-3-|-1-1-1-1-1-1-1-1-1-1-1-1-4-------|

Guitar 1
eb| |---------------------------------|---------------------------------|
Bb| |---------------------------------|---------------------------------|
Gb| |-5-5-5-5-5-5-5-5-5-5-5-5-5-5-5-5-|-5-5-5-5-5-5-5-5-5-5-5-5-4-4-4-4-|
Db| |-7-7-7-7-7-7-7-7-7-7-7-7-7-7-7-7-|-7-7-7-7-7-7-7-7-7-7-7-7-6-6-6-6-|
Ab| |---------------------------------|---------------------------------|
Eb| |---------------------------------|---------------------------------|
                                                                        |
Guitar 2                                                                |
eb| |---------------------------------|---------------------------------|
Bb| |---------------------------------|---------------------------------|
Gb| |---------------------------------|---------------------------------|
Db| |-7---x-x-x-----x-7---x-x-x-----x-|-7---x-x-x-----x-7---x-x-x-----x-|
Ab| |-7---x-x-x-----x-7---x-x-x-----x-|-7---x-x-x-----x-7---x-x-x-----x-|
Eb| |-5---x-x-x-----x-5---x-x-x-----x-|-5---x-x-x-----x-5---x-x-x-----x-|

Guitar 1
eb| |---------------------------------|---------------------------------|
Bb| |---------------------------------|---------------------------------|
Gb| |-5-------------------------------|---------------------------------|
Db| |-7-------------------------------|---------------------------------|
Ab| |---------------------------------|---------------------------------|
Eb| |---------------------------------|---------------------------------|
                                                                        |
Guitar 2                                                                |
eb| |---------------------------------|---------------------------------|
Bb| |---------------------------------|---------------------------------|
Gb| |---------------------------------|---------------------------------|
Db| |-7~------------------------------|---------------------------------|
Ab| |-7~------------------------------|---------------------------------|
Eb| |-5~------------------------------|---------------------------------|


 ______________
| MakeDamnSure |
|______________|

Tuning: Half-Step Down
Guitar 1 – Slight Distortion
Guitar 2 – Distortion

 ___________________
| Intro (0:00-0:13) |
|___________________|

Guitar 1
eb| |---------------------------------|---------------------------------|
Bb| |---------------------------------|---------------------------------|
Gb| |---------------------------------|---------------------------------|
Db| |-----4---------------4-------4---|-----4---------------5-----------|
Ab| |-----------------2-2-----5-5-----|-----------------3-3-------------|
Eb| |-3-3-----------------------------|-0(0)----------------------------|
          You've got this new head     I got my veins all tangled close
          filled up with smoke and
Guitar 1
eb| |---------------------------------|---------------------------------|
Bb| |---------------------------------|---------------------------------|
Gb| |---------------------------------|---------------------2-----------|
Db| |-----4---------------4-------4---|-----4-------------2-------------|
Ab| |-----------------2-2-------------|-----------------0---------------|
Eb| |-3-3---------------------2-2-----|-0(0)----------------------------|
          To the jukebox bars               The safest place to hide    |
          you frequent                                                  |
Guitar 2                                                                |
eb| |---------------------------------|---------------------------------|
Bb| |---------------------------------|---------------------------------|
Gb| |---------------------------------|---------------------------------|
Db| |---------------------------------|---------------------------7-7-7-|
Ab| |---------------------------------|---------------------------7-7-7-|
Eb| |---------------------------------|---------------------------5-5-5-|

 ___________________
| Verse (0:14-0:28) |
|___________________|

Guitar 1
eb| |---------------------------------|---------------------------------|
Bb| |---------------------------------|---------------------------------|
Gb| |---------------------------------|---------------------------------|
Db| |-----4---------------4-------4---|-----4---------------5-----------|
Ab| |-----------------2-2-----5-5-----|-----------------3-3-------------|
Eb| |-3-3-----------------------------|-0(0)----------------------------|
          A long night spent with           You start shaking at the    |
          your obvious weakness             thought          you are    |
Guitar 2                                                                |
eb| |---------------------------------|---------------------------------|
Bb| |---------------------------------|---------------------------------|
Gb| |-----------------4-4-4-4-7-7-7-7-|-----------------5-5-5-5-5-5-5-5-|
Db| |-5-5-5-5-5-5-4-5-4-4-4-4-7-7-7-7-|-2-2-2-2-2-5-4-5-5-5-5-5-5-5-5-5-|
Ab| |-5-5-5-5-5-5-5-5-2-2-2-2-5-5-5-5-|-2-2-2-2-2-2-2-2-3-3-3-3-3-3-3-3-|
Eb| |-3-3-3-3-3-3-3-3-----------------|-0-0-0-0-0-0-0-0-----------------|
      * * * * * * * * * * * * * * * *   * * * * * * * * * * * * * * * *

Guitar 1
eb| |---------------------------------|---------------------------------|
Bb| |---------------------------------|---------------------------------|
Gb| |---------------------------------|---------------------2-----------|
Db| |-----4---------------4-------4---|-----4-------------2-------------|
Ab| |-----------------2-2-------------|-----------------0---------------|
Eb| |-3-3---------------------2-2-----|-0(0)----------------------------|
          Everything I want 'cause you are everything I'm not           |
         (Everything I want)              (everything I'm not)          |
                                                                        |
Guitar 2                                                                |
eb| |---------------------------------|---------------------------------|
Bb| |---------------------------------|---------------------------------|
Gb| |-----------------4-4-4-4---------|-----------------2-2-2-2-2-2-2-2-|
Db| |-5-5-5-5-5-5-4-5-4-4-4-4-4-4-4-4-|-2-2-2-2-2-2-2-2-2-2-2-2-2-2-2-2-|
Ab| |-5-5-5-5-5-5-5-5-2-2-2-2-4-4-4-4-|-2-2-2-2-2-2-2-2-0-0-0-0-0-0-0-0-|
Eb| |-3-3-3-3-3-3-3-3---------2-2-2-2-|-0-0-0-0-0-0-0-0-----------------|
      * * * * * * * * * * * * * * * *   * * * * * * * *(* * * * * * * *)

 ________________________
| Pre-Chorus (0:28-0:42) |
|________________________|

Guitar 1
eb| |------------------------19-------|-------------------------22------|
Bb| |--19----20----19----20------20---|--19----20----19----20------20---|
Gb| |---------------------------------|---------------------------------|
Db| |17----17----17----17-------------|16----16----16----16-------------|
Ab| |---------------------------------|---------------------------------|
Eb| |---------------------------------|---------------------------------|
      And we lay, we lay together        too close, too close           |
                     just not                    (Close is close enough)|
                                                                        |
Guitar 2                                                                |
eb| |---------------------------------|---------------------------------|
Bb| |---------------------------------|---------------------------------|
Gb| |-5-5-5-5-5-5-5-5-5-5-5-5-5-5-5-5-|-4-4-4-4-4-4-4-4-7-7-7-7-7-7-7-7-|
Db| |-5-5-5-5-5-5-5-5-5-5-5-5-5-5-5-5-|-5-5-5-5-5-5-5-5-7-7-7-7-7-7-7-7-|
Ab| |-3-3-3-3-3-3-3-3-3-3-3-3-3-3-3-3-|-2-2-2-2-2-2-2-2-5-5-5-5-5-5-5-5-|
Eb| |---------------------------------|---------------------------------|

Guitar 1
eb| |------------------------19-------|-------------------------22~-----|
Bb| |--19----20----19----20------20---|---19----20----19----20----------|
Gb| |---------------------------------|---------------------------------|
Db| |17----17----17----17-------------|-16----16----16----16------------|
Ab| |---------------------------------|---------------------------------|
Eb| |---------------------------------|---------------------------------|
      And we lay, we lay together        too close, too close           |
                     just not                              I just wanna |
                                                                        |
Guitar 2                                                                |
eb| |---------------------------------|---------------------------------|
Bb| |---------------------------------|---------------------------------|
Gb| |-5-5-5-5-5-5-5-5-5-5-5-5-5-5-5-5-|-4-4-4-4-4-4-4-4-7-7-7-7-7-7-7-7-|
Db| |-5-5-5-5-5-5-5-5-5-5-5-5-5-5-5-5-|-5-5-5-5-5-5-5-5-7-7-7-7-7-7-7-7-|
Ab| |-3-3-3-3-3-3-3-3-3-3-3-3-3-3-3-3-|-2-2-2-2-2-2-2-2-5-5-5-5-5-5-5-5-|
Eb| |---------------------------------|---------------------------------|

 ____________________
| Chorus (0:42-0:55) |
|____________________|

Guitar 1 & 2
eb| |---------------------------------|---------------------------------|
Bb| |---------------------------------|---------------------------------|
Gb| |---------------------------------|-7-7-7-7-7-7-7-7-7-7-7-7-7-7-7-7-|
Db| |-5-5-5-5-5-5-5-5-5-5-5-5-5-5-5-5-|-7-7-7-7-7-7-7-7-7-7-7-7-7-7-7-7-|
Ab| |-5-5-5-5-5-5-5-5-5-5-5-5-5-5-5-5-|-5-5-5-5-5-5-5-5-5-5-5-5-5-5-5-5-|
Eb| |-3-3-3-3-3-3-3-3-3-3-3-3-3-3-3-3-|---------------------------------|
      Break you down so badly                              I just wanna
                         (Well I trip over everything you said)

Guitar 1 & 2
eb| |---------------------------------|---------------------------------|
Bb| |---------------------------------|---------------------------------|
Gb| |-4-4-4-4-4-4-4-4-4-4-4-4-4-4-4-4-|-5-5-5-5-5-5-5-5-5-5-5-5-5-5-5-5-|
Db| |-5-5-5-5-5-5-5-5-5-5-5-5-5-5-5-5-|-5-5-5-5-5-5-5-5-5-5-5-5-5-5-5-5-|
Ab| |-2-2-2-2-2-2-2-2-2-2-2-2-2-2-2-2-|-3-3-3-3-3-3-3-3-3-3-3-3-3-3-3-3-|
Eb| |---------------------------------|---------------------------------|
      Break you down so badly
                                (In the worst way...)
 ___________________
| Verse (0:55-1:23) |
|___________________|

Guitar 1
eb| |---------------------------------|---------------------------------|
Bb| |---------------------------------|---------------------------------|
Gb| |---------------------------------|---------------------------------|
Db| |-----4---------------4-------4---|-----4---------------5-----------|
Ab| |-----------------2-2-----5-5-----|-----------------3-3-------------|
Eb| |-3-3-----------------------------|-0(0)----------------------------|
      My inarticulate store bought      hangover hobby kit in time

Guitar 1
eb| |---------------------------------|---------------------------------|
Bb| |---------------------------------|---------------------------------|
Gb| |---------------------------------|---------------------2-----------|
Db| |-----4---------------4-------4---|-----4-------------2-------------|
Ab| |-----------------2-2-------------|-----------------0---------------|
Eb| |-3-3---------------------2-2-----|-0(0)----------------------------|
                           It says, "You, oh, you are so cool"  It said |
     (Time...)                                                          |
                                                                        |
Guitar 2                                                                |
eb| |---------------------------------|---------------------------------|
Bb| |---------------------------------|---------------------------------|
Gb| |---------------------------------|---------------------------------|
Db| |---------------------------------|---------------------------7-7-7-|
Ab| |---------------------------------|---------------------------7-7-7-|
Eb| |---------------------------------|---------------------------5-5-5-|

Guitar 1
eb| |---------------------------------|---------------------------------|
Bb| |---------------------------------|---------------------------------|
Gb| |---------------------------------|---------------------------------|
Db| |-----4---------------4-------4---|-----4---------------5-----------|
Ab| |-----------------2-2-----5-5-----|-----------------3-3-------------|
Eb| |-3-3-----------------------------|-0(0)----------------------------|
     "Scissor shaped    you are red,    violent red"      You hollow out|
      across the bed,                                                   |
                                                                        |
Guitar 2                                                                |
eb| |---------------------------------|---------------------------------|
Bb| |---------------------------------|---------------------------------|
Gb| |-----------------4-4-4-4-7-7-7-7-|-----------------5-5-5-5-5-5-5-5-|
Db| |-5-5-5-5-5-5-4-5-4-4-4-4-7-7-7-7-|-2-2-2-2-2-5-4-5-5-5-5-5-5-5-5-5-|
Ab| |-5-5-5-5-5-5-5-5-2-2-2-2-5-5-5-5-|-2-2-2-2-2-2-2-2-3-3-3-3-3-3-3-3-|
Eb| |-3-3-3-3-3-3-3-3-----------------|-0-0-0-0-0-0-0-0-----------------|
      * * * * * * * * * * * * * * * *   * * * * * * * * * * * * * * * *

Guitar 1
eb| |---------------------------------|---------------------------------|
Bb| |---------------------------------|---------------------------------|
Gb| |---------------------------------|---------------------2-----------|
Db| |-----4---------------4-------4---|-----4-------------2-------------|
Ab| |-----------------2-2-------------|-----------------0---------------|
Eb| |-3-3---------------------2-2-----|-0(0)----------------------------|
      my hungry eyes      You hollow out my hungry eyes...              |
                                    (out my hungry eyes...)             |
                                                                        |
Guitar 2                                                                |
eb| |---------------------------------|---------------------------------|
Bb| |---------------------------------|---------------------------------|
Gb| |-----------------4-4-4-4---------|-----------------2-2-2-2-2-2-2-2-|
Db| |-5-5-5-5-5-5-4-5-4-4-4-4-4-4-4-4-|-2-2-2-2-2-2-2-2-2-2-2-2-2-2-2-2-|
Ab| |-5-5-5-5-5-5-5-5-2-2-2-2-4-4-4-4-|-2-2-2-2-2-2-2-2-0-0-0-0-0-0-0-0-|
Eb| |-3-3-3-3-3-3-3-3---------2-2-2-2-|-0-0-0-0-0-0-0-0-----------------|
      * * * * * * * * * * * * * * * *   * * * * * * * *(* * * * * * * *)

 ________________________
| Pre-Chorus (1:23-1:36) |
|________________________|

Guitar 1
eb| |------------------------19-------|-------------------------22------|
Bb| |--19----20----19----20------20---|--19----20----19----20------20---|
Gb| |---------------------------------|---------------------------------|
Db| |17----17----17----17-------------|16----16----16----16-------------|
Ab| |---------------------------------|---------------------------------|
Eb| |---------------------------------|---------------------------------|
      And we lay, we lay together        too close, too close           |
                     just not                    (Close is close enough)|
                                                                        |
Guitar 2                                                                |
eb| |---------------------------------|---------------------------------|
Bb| |---------------------------------|---------------------------------|
Gb| |-5-5-5-5-5-5-5-5-5-5-5-5-5-5-5-5-|-4-4-4-4-4-4-4-4-7-7-7-7-7-7-7-7-|
Db| |-5-5-5-5-5-5-5-5-5-5-5-5-5-5-5-5-|-5-5-5-5-5-5-5-5-7-7-7-7-7-7-7-7-|
Ab| |-3-3-3-3-3-3-3-3-3-3-3-3-3-3-3-3-|-2-2-2-2-2-2-2-2-5-5-5-5-5-5-5-5-|
Eb| |---------------------------------|---------------------------------|

Guitar 1
eb| |------------------------19-------|---------------------------------|
Bb| |--19----20----19----20------20---|--19----20----19----20\----------|
Gb| |---------------------------------|---------------------------------|
Db| |17----17----17----17-------------|16----16----16----16-------------|
Ab| |---------------------------------|---------------------------------|
Eb| |---------------------------------|---------------------------------|
      And we lay, we lay together        too close, too close           |
                     just not                              I just wanna |
                                                                        |
Guitar 2                                                                |
eb| |---------------------------------|---------------------------------|
Bb| |---------------------------------|---------------------------------|
Gb| |-5-5-5-5-5-5-5-5-5-5-5-5-5-5-5-5-|-4-4-4-4-4-4-4-4-7-7-7-7---------|
Db| |-5-5-5-5-5-5-5-5-5-5-5-5-5-5-5-5-|-5-5-5-5-5-5-5-5-7-7-7-7-5-5-5-5-|
Ab| |-3-3-3-3-3-3-3-3-3-3-3-3-3-3-3-3-|-2-2-2-2-2-2-2-2-5-5-5-5-5-5-5-5-|
Eb| |---------------------------------|-------------------------3-3-3-3-|
                                                                * * * *

 ____________________
| Chorus (1:37-2:04) |
|____________________|

Guitar 1
eb| |---------------------------------|---------------------------------|
Bb| |o--------------------------------|---------------------------------|
Gb| |---------------------------------|-7-7-7-7-7-7-7-7-7-7-7-7-7-7-7-7-|
Db| |-5-5-5-5-5-5-5-5-5-5-5-5-5-5-5-5-|-7-7-7-7-7-7-7-7-7-7-7-7-7-7-7-7-|
Ab| |o5-5-5-5-5-5-5-5-5-5-5-5-5-5-5-5-|-5-5-5-5-5-5-5-5-5-5-5-5-5-5-5-5-|
Eb| |-3-3-3-3-3-3-3-3-3-3-3-3-3-3-3-3-|---------------------------------|
   1. Break you down so badly                              I just wanna
                         (Well I trip over everything you said)
   2. Break you down so badly                              I just wanna
                         (Well I trip over everything you said)

Guitar 1
eb| |---------------------------------|---------------------------------|
Bb| |---------------------------------|--------------------------------o|
Gb| |-4-4-4-4-4-4-4-4-4-4-4-4-4-4-4-4-|-5-5-5-5-5-5-5-5-5-5-5-5-5-5-5-5-|
Db| |-5-5-5-5-5-5-5-5-5-5-5-5-5-5-5-5-|-5-5-5-5-5-5-5-5-5-5-5-5-5-5-5-5-|
Ab| |-2-2-2-2-2-2-2-2-2-2-2-2-2-2-2-2-|-3-3-3-3-3-3-3-3-3-3-3-3-3-3-3-3o|
Eb| |---------------------------------|---------------------------------|
   1. Break you down so badly
                                (In the worst way...)
   2. Break you down so badly                     Worst way...
                                (In the worst way...)

 ____________________
| Bridge (2:04-2:45) |
|____________________|

Guitar 1
eb| |---------------------------------|---------------------------------|
Bb| |-8---8---8---8---8---8---8---8---|-8---8---8---8---8---8---8---8---|
Gb| |---9---9---9---9---9---9---9---9-|---9---9---9---9---9---9---9---9-|
Db| |---------------------------------|---------------------------------|
Ab| |---------------------------------|---------------------------------|
Eb| |---------------------------------|---------------------------------|
                                                         I'm gunna make

Guitar 1
eb| |---------------------------------|---------------------------------|
Bb| |-8---8---8---8---8---8---8---8---|-7---7---7---7---7---7---7---7---|
Gb| |---9---9---9---9---9---9---9---9-|---9---9---9---9---9---9---9---9-|
Db| |---------------------------------|---------------------------------|
Ab| |---------------------------------|---------------------------------|
Eb| |---------------------------------|---------------------------------|
      Damn             sure...          that you can't ever leave No you

Guitar 1
eb| |---------------------------------|---------------------------------|
Bb| |-5---5---5---5---5---5---5---5---|-5---5---5---5---5---5---5---5---|
Gb| |---7---7---7---7---7---7---7---7-|---5---5---5---5---5---5---5---5-|
Db| |---------------------------------|---------------------------------|
Ab| |---------------------------------|---------------------------------|
Eb| |---------------------------------|---------------------------------|
      won't ever get too far from me you won't ever get too
                                         far from me I'll make


Guitar 1
eb| |---------------------------------|---------------------------------|
Bb| |-8---8---8---8---8---8---8---8---|-7---7---7---7---7---7---7---7---|
Gb| |---9---9---9---9---9---9---9---9-|---9---9---9---9---9---9---9---9-|
Db| |---------------------------------|---------------------------------|
Ab| |---------------------------------|---------------------------------|
Eb| |---------------------------------|---------------------------------|
      Damn             sure...          that you can't ever leave No you|
     (Damn             sure...          that you can't ever leave)      |
                                                                        |
Guitar 2                                                                |
eb| |---------------------------------|---------------------------------|
Bb| |---------------------------------|---------------------------------|
Gb| |-9~-(9-9-9-9-9-9-9-9-9-9-9-9-9-9)|11~(1111111111111111111111111111)|
Db| |-x--(x-x-x-x-x-x-x-x-x-x-x-x-x-x)|-x-(-x-x-x-x-x-x-x-x-x-x-x-x-x-x)|
Ab| |-7~-(7-7-7-7-7-7-7-7-7-7-7-7-7-7)|-9~(-9-9-9-9-9-9-9-9-9-9-9-9-9-9)|
Eb| |---------------------------------|---------------------------------|

Guitar 1
eb| |---------------------------------|---------------------------------|
Bb| |---------------------------------|---------------------------------|
Gb| |17171717161616161414141412121212-|17171717161616161414141412121212-|
Db| |-x-x-x-x-x-x-x-x-x-x-x-x-x-x-x-x-|-x-x-x-x-x-x-x-x-x-x-x-x-x-x-x-x-|
Ab| |15151515141414141212121210101010-|15151515141414141212121210101010-|
Eb| |---------------------------------|---------------------------------|
      won't ever get too far from me you won't ever get too far from me |
                                                                        |
Guitar 2                                                                |
eb| |---------------------------------|---------------------------------|
Bb| |---------------------------------|---------------------------------|
Gb| |-9-9-9-9-7-7-7-7-5-5-5-5-4-4-4-4-|-9-9-9-9-7-7-7-7-5-5-5-5-4-4-4-4-|
Db| |-x-x-x-x-x-x-x-x-x-x-x-x-x-x-x-x-|-x-x-x-x-x-x-x-x-x-x-x-x-x-x-x-x-|
Ab| |-7-7-7-7-5-5-5-5-3-3-3-3-2-2-2-2-|-7-7-7-7-5-5-5-5-3-3-3-3-2-2-2-2-|
Eb| |---------------------------------|---------------------------------|

Guitar 1
eb| |---------------------------------|---------------------------------|
Bb| |---------------------------------|---------------------------------|
Gb| |17171717161616161414141412121212-|171717171616161614141414---------|
Db| |-x-x-x-x-x-x-x-x-x-x-x-x-x-x-x-x-|-x-x-x-x-x-x-x-x-x-x-x-x---------|
Ab| |15151515141414141212121210101010-|151515151414141412121212---------|
Eb| |---------------------------------|---------------------------------|
      won't ever get too far from me you won't ever get too far I just  |
           (ever get too far from me)         (ever get too far) wanna  |
                                                                        |
Guitar 2                                                                |
eb| |---------------------------------|---------------------------------|
Bb| |---------------------------------|---------------------------------|
Gb| |-9-9-9-9-7-7-7-7-5-5-5-5-4-4-4-4-|-9-9-9-9-7-7-7-7-5-5-5-5---------|
Db| |-x-x-x-x-x-x-x-x-x-x-x-x-x-x-x-x-|-x-x-x-x-x-x-x-x-x-x-x-x---------|
Ab| |-7-7-7-7-5-5-5-5-3-3-3-3-2-2-2-2-|-7-7-7-7-5-5-5-5-3-3-3-3---------|
Eb| |---------------------------------|---------------------------------|

 ____________________
| Chorus (2:45-3:12) |
|____________________|

Guitar 1
eb| |---------------------------------|---------------------------------|
Bb| |---------------------------------|---------------------------------|
Gb| |---------------------------------|-7-7-7-7-7-7-7-7-7-7-7-7-7-7-7-7-|
Db| |-5-5-5-5-5-5-5-5-5-5-5-5-5-5-5-5-|-7-7-7-7-7-7-7-7-7-7-7-7-7-7-7-7-|
Ab| |-5-5-5-5-5-5-5-5-5-5-5-5-5-5-5-5-|-5-5-5-5-5-5-5-5-5-5-5-5-5-5-5-5-|
Eb| |-3-3-3-3-3-3-3-3-3-3-3-3-3-3-3-3-|---------------------------------|
      Bring you down so badly                              I just wanna |
                         (Well I trip over everything you said)         |
                                                                        |
Guitar 2                                                                |
eb| |---------------------------------|---------------------------------|
Bb| |---------------------------------|---------------------------------|
Gb| |--12--12--12--12--12--12--12--12-|--19--19--19--19--19--19--19--19-|
Db| |---------------------------------|---------------------------------|
Ab| |10--10--10--10--10--10--10--10---|17--17--17--17--17--17--17--17---|
Eb| |---------------------------------|---------------------------------|

Guitar 1
eb| |---------------------------------|---------------------------------|
Bb| |---------------------------------|---------------------------------|
Gb| |-4-4-4-4-4-4-4-4-4-4-4-4-4-4-4-4-|-5-5-5-5-5-5-5-5-5-5-5-5-5-5-5-5-|
Db| |-5-5-5-5-5-5-5-5-5-5-5-5-5-5-5-5-|-5-5-5-5-5-5-5-5-5-5-5-5-5-5-5-5-|
Ab| |-2-2-2-2-2-2-2-2-2-2-2-2-2-2-2-2-|-3-3-3-3-3-3-3-3-3-3-3-3-3-3-3-3-|
Eb| |---------------------------------|---------------------------------|
      Bring you down so badly                  Worst way I'm gunna make |
                                (In the worst way...)                   |
                                                                        |
Guitar 2                                                                |
eb| |---------------------------------|---------------------------------|
Bb| |---------------------------------|---------------------------------|
Gb| |--16--16--16--16--16--16--16--16-|--17--17--17--17--17--17--17--17-|
Db| |---------------------------------|---------------------------------|
Ab| |14--14--14--14--14--14--14--14---|15--15--15--15--15--15--15--15---|
Eb| |---------------------------------|---------------------------------|

Guitar 1
eb| |---------------------------------|---------------------------------|
Bb| |---------------------------------|---------------------------------|
Gb| |---------------------------------|-7-7-7-7-7-7-7-7-7-7-7-7-7-7-7-7-|
Db| |-5-\-----5-5-5-5-5-5-5-5-5-5-5-5-|-7-7-7-7-7-7-7-7-7-7-7-7-7-7-7-7-|
Ab| |-5-\-----5-5-5-5-5-5-5-5-5-5-5-5-|-5-5-5-5-5-5-5-5-5-5-5-5-5-5-5-5-|
Eb| |-3-\-----3-3-3-3-3-3-3-3-3-3-3-3-|---------------------------------|
      Damn       sure... I just wanna   Bring you down so badly         |
                                                        I just wanna    |
                                                                        |
Guitar 2                                                                |
eb| |------------------------19-------|-------------------------22------|
Bb| |--------20----19----20------20---|--19----20----19----20------20---|
Gb| |---------------------------------|---------------------------------|
Db| |------------17----17-------------|16----16----16----16-------------|
Ab| |---------------------------------|---------------------------------|
Eb| |---------------------------------|---------------------------------|

Guitar 1
eb| |---------------------------------|---------------------------------|
Bb| |---------------------------------|---------------------------------|
Gb| |-4-4-4-4-4-4-4-4-4-4-4-4-4-4-4-4-|-5-5-5-5-5-5-5-5-5-5-5-5-5-5-5-5~|
Db| |-5-5-5-5-5-5-5-5-5-5-5-5-5-5-5-5-|-5-5-5-5-5-5-5-5-5-5-5-5-5-5-5-5~|
Ab| |-2-2-2-2-2-2-2-2-2-2-2-2-2-2-2-2-|-3-3-3-3-3-3-3-3-3-3-3-3-3-3-3-3~|
Eb| |---------------------------------|---------------------------------|
      Bring you down so badly                     Worst way             |
                                (In the worst way...)                   |
                                                                        |
Guitar 2                                                                |
eb| |------------------------19-------|-------------------------22------|
Bb| |--19----20----19----20------20---|--19----20----19----20------20---|
Gb| |---------------------------------|---------------------------------|
Db| |17----17----17----17-------------|16----16----16----16-------------|
Ab| |---------------------------------|---------------------------------|
Eb| |---------------------------------|---------------------------------|

 ___________________
| Outro (3:12-3:25) |
|___________________|

Guitar 1
eb| |-------------------------7-------|--------------10~~---------------|
Bb| |---7-----8-----7-----8-------8---|---7-----8-----8~~---------------|
Gb| |-0-----0-----0-----0-------------|-0-----0----0-(0)~---------------|
Db| |---------------------------------|---------------------------------|
Ab| |---------------------------------|---------------------------------|
Eb| |---------------------------------|---------------------------------|
                                                                        |
Guitar 2                                                                |
eb| |---------------------------------|---------------------------------|
Bb| |---------------------------------|---------------------------------|
Gb| |---------------------------------|---------------------------------|
Db| |-5~------------------------------|---------------------------------|
Ab| |-5~------------------------------|---------------------------------|
Eb| |-3~------------------------------|---------------------------------|


 _______________________
| Up Against (Blackout) |
|_______________________|

Tuning: Half-Step Down
Guitar 1- Distortion
Guitar 2- Distortion

 _________________________
| Intro/Verse (0:00-0:10) |
|_________________________|

Guitar 1
eb| |---------------------------------|---------------------------------|
Bb| |---------------------------------|---------------------------------|
Gb| |-----7---6-------4---6-----------|---------------------7---6-------|
Db| |-------------------------5-5---5-|-5---5-5---5-5-------------------|
Ab| |---9-----------5---------5-5---5-|-5---5-5---5-5-----9-----------5-|
Eb| |-7-----5---5-3-----5-----3-3---3-|-3---3-3---3-3---7-----5---5-3---|
      * *   *   * * *   *                               * *   *   * * * |
      So this is what we're up against                  So this is what |
                                                                        |
Guitar 2                                                                |
eb| |---------------------------------|---------------------------------|
Bb| |---------------------------------|---------------------------------|
Gb| |-------------------------9-9---9-|-9---9-9---9-9-------------------|
Db| |-------------------------x-x---x-|-x---x-x---x-x-------------------|
Ab| |-------------------------7-7---7-|-7---7-7---7-7-------------------|
Eb| |---------------------------------|---------------------------------|

Guitar 1
eb| |---------------------------------|
Bb| |---------------------------------|
Gb| |-4---6-----------------------7*5*|
Db| |---------5-5---5-5---5-5---7*----|
Ab| |---------5-5---5-5---5-5---------|
Eb| |---5-----3-3---3-3---3-3---------|
        *                             |
      we're up against                |
                                      |
Guitar 2                              |
eb| |---------------------------------|
Bb| |---------------------------------|
Gb| |---------9-9---9-9---9-9---------|
Db| |---------x-x---x-x---x-x---------|
Ab| |---------7-7---7-7---7-7---------|
Eb| |---------------------------------|

 ____________________
| Chorus (0:10-0:30) |
|____________________|

Guitar 1
eb| |---------------------------------|---------------------------------|
Bb| |---------------------------------|---------------------------------|
Gb| |-4-4-4-2-2-2---------------------|-----------------4-4-4-2-2-2-----|
Db| |-4-4-4-2-2-2-4-4-4-5-5-5-5-5---5-|-5---5-5---5-5---4-4-4-2-2-2-4-4-|
Ab| |-2-2-2-0-0-0-4-4-4-5-5-5-5-5---5-|-5---5-5---5-5---2-2-2-0-0-0-4-4-|
Eb| |-------------2-2-2-3-3-3-3-3---3-|-3---3-3---3-3---------------2-2-|
      Face it,               This is what we're up against your waiting |
                                                                        |
Guitar 2                                                                |
eb| |---------------------------------|---------------------------------|
Bb| |---------------------------------|---------------------------------|
Gb| |121212111111-7-7-7-9-9-9-9-9---9-|-9---9-9---9-9--121212111111-7-7-|
Db| |-x-x-x-x-x-x-x-x-x-x-x-x-x-x---x-|-x---x-x---x-x---x-x-x-x-x-x-x-x-|
Ab| |101010-9-9-9-5-5-5-7-7-7-7-7---7-|-7---7-7---7-7--101010-9-9-9-5-5-|
Eb| |---------------------------------|---------------------------------|

Guitar 1
eb| |---------------------------------|---------------------------------|
Bb| |---------------------------------|---------------------------------|
Gb| |---------------------------------|-4-4-4-2-2-2---------------------|
Db| |-4-5-5-5-5-5---5-5---5-5---5-5---|-4-4-4-2-2-2-4-4-4-5-5-5-5-5---5-|
Ab| |-4-5-5-5-5-5---5-5---5-5---5-5---|-2-2-2-0-0-0-4-4-4-5-5-5-5-5---5-|
Eb| |-2-3-3-3-3-3---3-3---3-3---3-3---|-------------2-2-2-3-3-3-3-3---3-|
             Every minute is a minute away Face it,            This is  |
                                                                        |
Guitar 2                                                                |
eb| |---------------------------------|---------------------------------|
Bb| |---------------------------------|---------------------------------|
Gb| |-7-9-9-9-9-9---9-9---9-9---9-9---|121212111111-7-7-7-9-9-9-9-9---9-|
Db| |-x-x-x-x-x-x---x-x---x-x---x-x---|-x-x-x-x-x-x-x-x-x-x-x-x-x-x---x-|
Ab| |-5-7-7-7-7-7---7-7---7-7---7-7---|101010-9-9-9-5-5-5-7-7-7-7-7---7-|
Eb| |---------------------------------|---------------------------------|

Guitar 1
eb| |---------------------------------|---------------------------------|
Bb| |---------------------------------|---------------------------------|
Gb| |-----------------4-4-4-2-2-2-----|---------------------------------|
Db| |-5---5-5---5-5---4-4-4-2-2-2-4-4-|-4-5-5-5-5-5---5-5---5-5---5-5---|
Ab| |-5---5-5---5-5---2-2-2-0-0-0-4-4-|-4-5-5-5-5-5---5-5---5-5---5-5---|
Eb| |-3---3-3---3-3---------------2-2-|-2-3-3-3-3-3---3-3---3-3---3-3---|
      what we're up against               Every minute is a minute away |
                                                                        |
Guitar 2                                                                |
eb| |---------------------------------|---------------------------------|
Bb| |---------------------------------|---------------------------------|
Gb| |-9---9-9---9-9--121212111111-7-7-|-7-9-9-9-9-9---9-9---9-9---9-9---|
Db| |-x---x-x---x-x---x-x-x-x-x-x-x-x-|-x-x-x-x-x-x---x-x---x-x---x-x---|
Ab| |-7---7-7---7-7--101010-9-9-9-5-5-|-5-7-7-7-7-7---7-7---7-7---7-7---|
Eb| |---------------------------------|---------------------------------|

 ___________________
| Verse (0:30-0:49) |
|___________________|

Guitar 1
eb| |---------------------------------|---------------------------------|
Bb| |---------------------------------|---------------------------------|
Gb| |-4~------------------------------|--------------7~-----------------|
Db| |-x-------------------------------|-----7------7-x------------------|
Ab| |-2~------------------------------|---5------5---5~-----------------|
Eb| |---------------------------------|-3------3------------------------|
                  Regrets always work   Excuses are better   A practical

Guitar 1
eb| |---------------------------------|---------------------------------|
Bb| |---------------------------------|---------------------------------|
Gb| |-----------------------------7~--|---------------------------------|
Db| |---------------------7-----7-x---|---------------------------------|
Ab| |-------------------5-----5---5~--|---------------------------------|
Eb| |-----------------3-----3---------|---------------------------------|
      exchange, oh    A trade for the truth  What you know it never held up
                                         (What you know it never held up)

Guitar 1
eb| |-------------------5*------------|
Bb| |---------------------5*----3*----|
Gb| |-----------------------5*----3*--|
Db| |-----7-----7-x-5-7-------5*------|
Ab| |---5-----5---5-------------------|
Eb| |-3-----3-------------------------|
     (Pretend that it still could now)|
                                      |
Guitar 2                              |
eb| |---------------------------------|
Bb| |---------------------------------|
Gb| |-----------------7/9-9-9-9111111-|
Db| |-----------------x-x-x-x-x-x-x-x-|
Ab| |-----------------5/7-7-7-7-9-9-9-|
Eb| |---------------------------------|

 ____________________
| Chorus (0:50-1:09) |
|____________________|

Guitar 1
eb| |---------------------------------|---------------------------------|
Bb| |---------------------------------|---------------------------------|
Gb| |-4-4-4-2-2-2---------------------|-----------------4-4-4-2-2-2-----|
Db| |-4-4-4-2-2-2-4-4-4-5-5-5-5-5---5-|-5---5-5---5-5---4-4-4-2-2-2-4-4-|
Ab| |-2-2-2-0-0-0-4-4-4-5-5-5-5-5---5-|-5---5-5---5-5---2-2-2-0-0-0-4-4-|
Eb| |-------------2-2-2-3-3-3-3-3---3-|-3---3-3---3-3---------------2-2-|
      Face it,               This is what we're up against your waiting |
                                                                        |
Guitar 2                                                                |
eb| |---------------------------------|---------------------------------|
Bb| |---------------------------------|---------------------------------|
Gb| |121212111111-7-7-7-9-9-9-9-9---9-|-9---9-9---9-9--121212111111-7-7-|
Db| |-x-x-x-x-x-x-x-x-x-x-x-x-x-x---x-|-x---x-x---x-x---x-x-x-x-x-x-x-x-|
Ab| |101010-9-9-9-5-5-5-7-7-7-7-7---7-|-7---7-7---7-7--101010-9-9-9-5-5-|
Eb| |---------------------------------|---------------------------------|

Guitar 1
eb| |---------------------------------|---------------------------------|
Bb| |---------------------------------|---------------------------------|
Gb| |---------------------------------|-4-4-4-2-2-2---------------------|
Db| |-4-5-5-5-5-5---5-5---5-5---5-5---|-4-4-4-2-2-2-4-4-4-5-5-5-5-5---5-|
Ab| |-4-5-5-5-5-5---5-5---5-5---5-5---|-2-2-2-0-0-0-4-4-4-5-5-5-5-5---5-|
Eb| |-2-3-3-3-3-3---3-3---3-3---3-3---|-------------2-2-2-3-3-3-3-3---3-|
             Every minute is a minute away Face it,            This is  |
                                                                        |
Guitar 2                                                                |
eb| |---------------------------------|---------------------------------|
Bb| |---------------------------------|---------------------------------|
Gb| |-7-9-9-9-9-9---9-9---9-9---9-9---|121212111111-7-7-7-9-9-9-9-9---9-|
Db| |-x-x-x-x-x-x---x-x---x-x---x-x---|-x-x-x-x-x-x-x-x-x-x-x-x-x-x---x-|
Ab| |-5-7-7-7-7-7---7-7---7-7---7-7---|101010-9-9-9-5-5-5-7-7-7-7-7---7-|
Eb| |---------------------------------|---------------------------------|

Guitar 1
eb| |---------------------------------|---------------------------------|
Bb| |---------------------------------|---------------------------------|
Gb| |-----------------4-4-4-2-2-2-----|---------------------------------|
Db| |-5---5-5---5-5---4-4-4-2-2-2-4-4-|-4-5-5-5-5-5---5-5---5-5---5-5---|
Ab| |-5---5-5---5-5---2-2-2-0-0-0-4-4-|-4-5-5-5-5-5---5-5---5-5---5-5---|
Eb| |-3---3-3---3-3---------------2-2-|-2-3-3-3-3-3---3-3---3-3---3-3---|
      what we're up against               Every minute is a minute away |
                                                                        |
Guitar 2                                                                |
eb| |---------------------------------|---------------------------------|
Bb| |---------------------------------|---------------------------------|
Gb| |-9---9-9---9-9--121212111111-7-7-|-7-9-9-9-9-9---9-9---9-9---9-9---|
Db| |-x---x-x---x-x---x-x-x-x-x-x-x-x-|-x-x-x-x-x-x---x-x---x-x---x-x---|
Ab| |-7---7-7---7-7--101010-9-9-9-5-5-|-5-7-7-7-7-7---7-7---7-7---7-7---|
Eb| |---------------------------------|---------------------------------|

 ___________________
| Verse (1:09-1:29) |
|___________________|

Guitar 1
eb| |---------------------------------|---------------------------------|
Bb| |---------------------------------|---------------------------------|
Gb| |-4~------------------------------|--------------7~-----------------|
Db| |-x-------------------------------|-----7------7-x------------------|
Ab| |-2~------------------------------|---5------5---5~-----------------|
Eb| |---------------------------------|-3------3------------------------|
      Turning our clocks backwards      But never ourselves             |
                                                                        |
Guitar 2                                                                |
eb| |---------------------------------|---------------------------------|
Bb| |---------------------------------|---------------------------------|
Gb| |-7*7*--7*--7*7*--7*--7*7*--7*--7*|-7*--7*--7*7*--7*--7*7*--7*--7*7*|
Db| |-7*7*--7*--7*7*--7*--7*7*--7*--7*|-7*--7*--7*7*--7*--7*7*--7*--7*7*|
Ab| |---------------------------------|---------------------------------|
Eb| |---------------------------------|---------------------------------|


Guitar 1
eb| |---------------------------------|---------------------------------|
Bb| |---------------------------------|---------------------------------|
Gb| |-----------------------------7~--|---------------------------------|
Db| |---------------------7-----7-x---|---------------------------------|
Ab| |-------------------5-----5---5~--|---------------------------------|
Eb| |-----------------3-----3---------|---------------------------------|
      To go with the flow just relax   You never feel the jetlag unless |
                             (just relax)                       (unless |
                                                                        |
Guitar 2                                                                |
eb| |---------------------------------|---------------------------------|
Bb| |---------------------------------|---------------------------------|
Gb| |-7*7*--7*--7*7*--7*--7*7*--7*--7*|-7*--7*--7*7*--7*--7*7*--7*--7*7*|
Db| |-7*7*--7*--7*7*--7*--7*7*--7*--7*|-7*--7*--7*7*--7*--7*7*--7*--7*7*|
Ab| |---------------------------------|---------------------------------|
Eb| |---------------------------------|---------------------------------|

Guitar 1
eb| |-------------------5*------------|
Bb| |---------------------5*----3*----|
Gb| |-----------------------5*----3*--|
Db| |-----7-----7-x-5-7-------5*------|
Ab| |---5-----5---5-------------------|
Eb| |-3-----3-------------------------|
      your trying to fit in           |
     (your trying to fit in)          |
                                      |
Guitar 2                              |
eb| |---------------------------------|
Bb| |---------------------------------|
Gb| |-----------------7/9-9-9-9111111-|
Db| |-----------------x-x-x-x-x-x-x-x-|
Ab| |-----------------5/7-7-7-7-9-9-9-|
Eb| |---------------------------------|

 ____________________
| Chorus (1:29-1:50) |
|____________________|

Guitar 1
eb| |---------------------------------|---------------------------------|
Bb| |---------------------------------|---------------------------------|
Gb| |-4-4-4-2-2-2---------------------|-----------------4-4-4-2-2-2-----|
Db| |-4-4-4-2-2-2-4-4-4-5-5-5-5-5---5-|-5---5-5---5-5---4-4-4-2-2-2-4-4-|
Ab| |-2-2-2-0-0-0-4-4-4-5-5-5-5-5---5-|-5---5-5---5-5---2-2-2-0-0-0-4-4-|
Eb| |-------------2-2-2-3-3-3-3-3---3-|-3---3-3---3-3---------------2-2-|
      Face it,               This is what we're up against your waiting |
                                                                        |
Guitar 2                                                                |
eb| |---------------------------------|---------------------------------|
Bb| |---------------------------------|---------------------------------|
Gb| |121212111111-7-7-7-9-9-9-9-9---9-|-9---9-9---9-9--121212111111-7-7-|
Db| |-x-x-x-x-x-x-x-x-x-x-x-x-x-x---x-|-x---x-x---x-x---x-x-x-x-x-x-x-x-|
Ab| |101010-9-9-9-5-5-5-7-7-7-7-7---7-|-7---7-7---7-7--101010-9-9-9-5-5-|
Eb| |---------------------------------|---------------------------------|

Guitar 1
eb| |---------------------------------|---------------------------------|
Bb| |---------------------------------|---------------------------------|
Gb| |---------------------------------|-4-4-4-2-2-2---------------------|
Db| |-4-5-5-5-5-5---5-5---5-5---5-5---|-4-4-4-2-2-2-4-4-4-5-5-5-5-5---5-|
Ab| |-4-5-5-5-5-5---5-5---5-5---5-5---|-2-2-2-0-0-0-4-4-4-5-5-5-5-5---5-|
Eb| |-2-3-3-3-3-3---3-3---3-3---3-3---|-------------2-2-2-3-3-3-3-3---3-|
             Every minute is a minute away Face it,            This is  |
                                                                        |
Guitar 2                                                                |
eb| |---------------------------------|---------------------------------|
Bb| |---------------------------------|---------------------------------|
Gb| |-7-9-9-9-9-9---9-9---9-9---9-9---|121212111111-7-7-7-9-9-9-9-9---9-|
Db| |-x-x-x-x-x-x---x-x---x-x---x-x---|-x-x-x-x-x-x-x-x-x-x-x-x-x-x---x-|
Ab| |-5-7-7-7-7-7---7-7---7-7---7-7---|101010-9-9-9-5-5-5-7-7-7-7-7---7-|
Eb| |---------------------------------|---------------------------------|

Guitar 1
eb| |---------------------------------|---------------------------------|
Bb| |---------------------------------|---------------------------------|
Gb| |-----------------4-4-4-2-2-2-----|---------------------------------|
Db| |-5---5-5---5-5---4-4-4-2-2-2-4-4-|-4-5-5-5-5-5---5-5---5-5---5-5---|
Ab| |-5---5-5---5-5---2-2-2-0-0-0-4-4-|-4-5-5-5-5-5---5-5---5-5---5-5---|
Eb| |-3---3-3---3-3---------------2-2-|-2-3-3-3-3-3---3-3---3-3---3-3---|
      what we're up against               Every minute is a minute away |
                                                                        |
Guitar 2                                                                |
eb| |---------------------------------|---------------------------------|
Bb| |---------------------------------|---------------------------------|
Gb| |-9---9-9---9-9--121212111111-7-7-|-7-9-9-9-9-9---9-9---9-9---9-9---|
Db| |-x---x-x---x-x---x-x-x-x-x-x-x-x-|-x-x-x-x-x-x---x-x---x-x---x-x---|
Ab| |-7---7-7---7-7--101010-9-9-9-5-5-|-5-7-7-7-7-7---7-7---7-7---7-7---|
Eb| |---------------------------------|---------------------------------|

 ____________________
| Bridge (1:50-2:30) |
|____________________|

Guitar 1
eb| |---------------------------------|---------------------------------|
Bb| |---------------------------------|-7*-----------12*----------------|
Gb| |---7*5*--------------------------|-----7*--------------------------|
Db| |-7*------------------------------|---------7*----------------------|
Ab| |---------------------------------|---------------------------------|
Eb| |---------------------------------|---------------------------------|

Guitar 1
eb| |---------------------------------|---------------------------------|
Bb| |---------------------------------|---------------------------------|
Gb| |---------------------------------|------11--11-9---9---------------|
Db| |---------------------------------|-9-9-9-------------9---9---9-9-9-|
Ab| |---------------------------------|---------------------------------|
Eb| |---------------------------------|---------------------------------|
                                        * * * *   * *   * *   *   * * *
                                        Less is more except when it comes
Guitar 1
eb| |---------------------------------|---------------------------------|
Bb| |------------10--10---------------|----------------------------10---|
Gb| |11--11-9---9------------11--11-9-|---9------------11--11-9---9-----|
Db| |-------------------9-9-9---------|-----9---9-9-9-9-----------------|
Ab| |---------------------------------|---------------------------------|
Eb| |---------------------------------|---------------------------------|
      *   * *   * *   * * * * *   * *     * *   * * * * *   * *   * *
      to mistakes       How long is long?      That depends... How long

Guitar 1
eb| |---------------------------------|---------------------------------|
Bb| |10-------------------------------|------------10--10---------------|
Gb| |--------11--11-9---9-------------|11--11-9---9-------------11--11--|
Db| |---9-9-9-------------9---9-9-9-9-|-------------------9-9-9---------|
Ab| |---------------------------------|---------------------------------|
Eb| |---------------------------------|---------------------------------|
      * * * * *   * *   * *   * * * *   *   * *   * *   * * * *  *   *
     it takes     Less is more except when it comes to mistakes  How long
                  (How      long...    How     long...    how    long...)

Guitar 1
eb| |---------------------------------|----------------|
Bb| |---------------------------------|--10--10--------|
Gb| |-9---9-------------11--11-9---9--|----------------|
Db| |-------9---9-9-9-9---------------|----------------|
Ab| |---------------------------------|----------------|
Eb| |---------------------------------|----------------|
      *   * *   * * * * *    * *   *      *   *
      is long? That depends  How long it takes.

Guitar 1
eb| |---------------------------------|---------------------------------|
Bb| |---------------------------------|---------------------------------|
Gb| |-----7---6-------4---6-----7---6-|-------4---6-----7---6-----------|
Db| |---------------------------------|-----------------------------5-5-|
Ab| |---9-----------5---------9-------|-----5---------9-----------5-5-5-|
Eb| |-7-----5---5-3-----5---7-----5---|-5-3-----5---7-----5---5-3---3-3-|
      * * * * * * * * * * * * * * * *   * * * * * * * * * * * * * *
      The years     Not days            The years     Not days
     (The months   (Your blackout memory) (The months)  (Your blackout memory)

 ___________________
| Outro (2:30-3:02) |
|___________________|

Guitar 1
eb| |---------------------------------|---------------------------------|
Bb| |---------------------------------|---------------------------------|
Gb| |-4-4-4-2-2-2---------------------|-----------------4-4-4-2-2-2-----|
Db| |-4-4-4-2-2-2-4-4-4-5-5-5-5-5---5-|-5---5-5---5-5---4-4-4-2-2-2-4-4-|
Ab| |-2-2-2-0-0-0-4-4-4-5-5-5-5-5---5-|-5---5-5---5-5---2-2-2-0-0-0-4-4-|
Eb| |-------------2-2-2-3-3-3-3-3---3-|-3---3-3---3-3---------------2-2-|
      Face it,               This is what we're up against your waiting |
                                                                        |
Guitar 2                                                                |
eb| |---------------------------------|---------------------------------|
Bb| |---------------------------------|---------------------------------|
Gb| |121212111111-7-7-7-9-9-9-9-9---9-|-9---9-9---9-9--121212111111-7-7-|
Db| |-x-x-x-x-x-x-x-x-x-x-x-x-x-x---x-|-x---x-x---x-x---x-x-x-x-x-x-x-x-|
Ab| |101010-9-9-9-5-5-5-7-7-7-7-7---7-|-7---7-7---7-7--101010-9-9-9-5-5-|
Eb| |---------------------------------|---------------------------------|

Guitar 1
eb| |---------------------------------|---------------------------------|
Bb| |---------------------------------|---------------------------------|
Gb| |---------------------------------|-4-4-4-2-2-2---------------------|
Db| |-4-5-5-5-5-5---5-5---5-5---5-5---|-4-4-4-2-2-2-4-4-4-5-5-5-5-5---5-|
Ab| |-4-5-5-5-5-5---5-5---5-5---5-5---|-2-2-2-0-0-0-4-4-4-5-5-5-5-5---5-|
Eb| |-2-3-3-3-3-3---3-3---3-3---3-3---|-------------2-2-2-3-3-3-3-3---3-|
             Every minute is a minute away Face it,            This is  |
                                                                        |
Guitar 2                                                                |
eb| |---------------------------------|---------------------------------|
Bb| |---------------------------------|---------------------------------|
Gb| |-7-9-9-9-9-9---9-9---9-9---9-9---|121212111111-7-7-7-9-9-9-9-9---9-|
Db| |-x-x-x-x-x-x---x-x---x-x---x-x---|-x-x-x-x-x-x-x-x-x-x-x-x-x-x---x-|
Ab| |-5-7-7-7-7-7---7-7---7-7---7-7---|101010-9-9-9-5-5-5-7-7-7-7-7---7-|
Eb| |---------------------------------|---------------------------------|

Guitar 1
eb| |---------------------------------|---------------------------------|
Bb| |---------------------------------|---------------------------------|
Gb| |-----------------4-4-4-2-2-2-----|---------------------------------|
Db| |-5---5-5---5-5---4-4-4-2-2-2-4-4-|-4-5-5-5-5-5---5-5---5-5---5-5---|
Ab| |-5---5-5---5-5---2-2-2-0-0-0-4-4-|-4-5-5-5-5-5---5-5---5-5---5-5---|
Eb| |-3---3-3---3-3---------------2-2-|-2-3-3-3-3-3---3-3---3-3---3-3---|
      what we're up against               Every minute is a minute away |
                                                                        |
Guitar 2                                                                |
eb| |---------------------------------|---------------------------------|
Bb| |---------------------------------|---------------------------------|
Gb| |-9---9-9---9-9--121212111111-7-7-|-7-9-9-9-9-9---9-9---9-9---9-9---|
Db| |-x---x-x---x-x---x-x-x-x-x-x-x-x-|-x-x-x-x-x-x---x-x---x-x---x-x---|
Ab| |-7---7-7---7-7--101010-9-9-9-5-5-|-5-7-7-7-7-7---7-7---7-7---7-7---|
Eb| |---------------------------------|---------------------------------|

Guitar 1
eb| |---------------------------------|---------------------------------|
Bb| |---------------------------------|---------------------------------|
Gb| |---------------------------------|---------------------------------|
Db| |-5-5---5-5---5-5---5-5---5-5---5-|-5---5-5---5-5---5-5---5-5---5-5-|
Ab| |-5-5---5-5---5-5---5-5---5-5---5-|-5---5-5---5-5---5-5---5-5---5-5-|
Eb| |-3-3---3-3---3-3---3-3---3-3---3-|-3---3-3---3-3---3-3---3-3---3-3-|
      Every minute is a minute away     Every minute is a minute away   |
                                                                        |
Guitar 2                                                                |
eb| |---------------------------------|---------------------------------|
Bb| |---------------------------------|---------------------------------|
Gb| |-9-9---9-9---9-9---9-9---9-9---9-|-9---9-9---9-9---9-9---9-9---9-9-|
Db| |-x-x---x-x---x-x---x-x---x-x---x-|-x---x-x---x-x---x-x---x-x---x-x-|
Ab| |-7-7---7-7---7-7---7-7---7-7---7-|-7---7-7---7-7---7-7---7-7---7-7-|
Eb| |---------------------------------|---------------------------------|

Guitar 1 & 2
eb| |---------------------------------|---------------------------------|
Bb| |---------------------------------|---------------------------------|
Gb| |---------------------------------|---------------------------------|
Db| |-5-5---5-5---5-5-----------------|---------------------------------|
Ab| |-5-5---5-5---5-5-----------------|---------------------------------|
Eb| |-3-3---3-3---3-3-----------------|---------------------------------|
      Every minute is a minute away                                     |
                                                                        |
Guitar 2                                                                |
eb| |---------------------------------|---------------------------------|
Bb| |---------------------------------|---------------------------------|
Gb| |-9-9---9-9---9-9-----------------|---------------------------------|
Db| |-x-x---x-x---x-x-----------------|---------------------------------|
Ab| |-7-7---7-7---7-7-----------------|---------------------------------|
Eb| |---------------------------------|---------------------------------|

 ________________
| My Blue Heaven |
|________________|

Tuning: Half-Step Down
Guitar 1- Clean/Distortion
Guitar 2- Distortion

 ___________________
| Intro (0:00-0:07) |
|___________________|

Guitar 1
eb| |---------------------------------|---------------------------------|
Bb| |-------------7*--------------7*--|-------------7*--------------7*--|
Gb| |---------7*--------------5*------|---------7*--------------5*------|
Db| |-9\7-0~----------5/7-0~----------|-9\7-0~----------5/7-0~----------|
Ab| |---------------------------------|---------------------------------|
Eb| |---------------------------------|---------------------------------|

 ___________________
| Verse (0:07-0:35) |
|___________________|

Guitar 1
eb| |---------------------------------|---------------------------------|
Bb| |o------------7*--------------7*--|-------------7*--------------7*-o|
Gb| |---------7*--------------5*------|---------7*--------------5*------|
Db| |-9\7-0~----------5/7-0~----------|-9\7-0~----------5/7-0~----------|
Ab| |o--------------------------------|--------------------------------o|
Eb| |---------------------------------|---------------------------------|
   1.   Two...        sides              twist and collide   We're calling
                                                             off the
   2.   Guards             I'm coming    through
       (Am I coming...)                  (Am I coming...)

Guitar 1
eb| |---------------------------------|---------------------------------|
Bb| |-------------7*--------------7*--|-------------7*--------------7*--|
Gb| |---------7*--------------5*------|---------7*--------------5*------|
Db| |-9\7-0~----------5/7-0~----------|-9\7-0~----------5/7-0~----------|
Ab| |---------------------------------|---------------------------------|
Eb| |---------------------------------|---------------------------------|
      Adulteress conditioned to a spin cycled submission...   You know  |
                                                                        |
Guitar 2                                                                |
eb| |---------------------------------|---------------------------------|
Bb| |---------------------------------|---------------------------------|
Gb| |-4-4-4-4-4-4-4-4-6-6-6-6-6-6-6-6-|-7-7-7-7-7-7-7-7-----------------|
Db| |-4-4-4-4-4-4-4-4-6-6-6-6-6-6-6-6-|-7-7-7-7-7-7-7-7-5-5-5-5-5-5-5-5-|
Ab| |-2-2-2-2-2-2-2-2-4-4-4-4-4-4-4-4-|-5-5-5-5-5-5-5-5-5-5-5-5-5-5-5-5-|
Eb| |---------------------------------|-----------------3-3-3-3-3-3-3-3-|
      * * * * * * * * * * * * * * * *   * * * * * * * * * * * * * * * *

Guitar 1
eb| |---------------------------------|---------------------------------|
Bb| |-------------7*--------------7*--|-------------7*--------------7*--|
Gb| |---------7*--------------5*------|---------7*--------------5*------|
Db| |-9\7-0~----------5/7-0~----------|-9\7-0~----------5/7-0~----------|
Ab| |---------------------------------|---------------------------------|
Eb| |---------------------------------|---------------------------------|
      Sometimes it just feels better to give in                         |
                                        (Sometimes      feels better    |
                                         it just        to give in  )   |
                                                                        |
Guitar 2                                                                |
eb| |---------------------------------|---------------------------------|
Bb| |---------------------------------|-------------------------8^--7^--|
Gb| |-4-4-4-4-4-4-4-4-6-6-6-6-6-6-6-6-|-7-7-7-7-7-7-7-7-----------------|
Db| |-4-4-4-4-4-4-4-4-6-6-6-6-6-6-6-6-|-7-7-7-7-7-7-7-7-5-5-5-----------|
Ab| |-2-2-2-2-2-2-2-2-4-4-4-4-4-4-4-4-|-5-5-5-5-5-5-5-5-5-5-5-----------|
Eb| |---------------------------------|-----------------3-3-3-----------|
      * * * * * * * * * * * * * * * *   * * * * * * * *

 ____________________
| Chorus (0:35-1:02) |
|____________________|

Guitar 1
eb| |---------------------------------|---------------------------------|
Bb| |---------------------------------|---------------------------------|
Gb| |111111--1111--1111--1111--111111-|121212--1212--1212--1212--1212/14|
Db| |-x-x-x---x-x---x-x---x-x---x-x-x-|-x-x-x---x-x---x-x---x-x---x-x-x-|
Ab| |-9-9-9---9-9---9-9---9-9---9-9-9-|101010--1010--1010--1010--1010/12|
Eb| |---------------------------------|---------------------------------|
      And it's all too familiar         And it happens all the time     |
                                                                        |
Guitar 2                                                                |
eb| |---------------------------------|---------------------------------|
Bb| |---------------------------------|---------------------------------|
Gb| |-7-7-7---7-7---7-7---7-7---7-7-7-|-6-6-6---6-6---6-6---6-6---6-6-6-|
Db| |-7-7-7---7-7---7-7---7-7---7-7-7-|-7-7-7---7-7---7-7---7-7---7-7-7-|
Ab| |-5-5-5---5-5---5-5---5-5---5-5-5-|-4-4-4---4-4---4-4---4-4---4-4-4-|
Eb| |---------------------------------|---------------------------------|

Guitar 1
eb| |---------------------------------|---------------------------------|
Bb| |---------------------------------|---------------------------------|
Gb| |111111--1111--1111--1111--111111-|121212--1212--1212--1212--121212-|
Db| |-x-x-x---x-x---x-x---x-x---x-x-x-|-x-x-x---x-x---x-x---x-x---x-x-x-|
Ab| |-9-9-9---9-9---9-9---9-9---9-9-9-|101010--1010--1010--1010--101010-|
Eb| |---------------------------------|---------------------------------|
      All the cards begin to stack up   Twisting heartache into fine    |
                                                                        |
Guitar 2                                                                |
eb| |---------------------------------|---------------------------------|
Bb| |---------------------------------|---------------------------------|
Gb| |-4-4-4---4-4---4-4---4-4---4-4-4-|-3-3-3---3-3---3-3---3-3---3-3-3-|
Db| |-4-4-4---4-4---4-4---4-4---4-4-4-|-4-4-4---4-4---4-4---4-4---4-4-4-|
Ab| |-2-2-2---2-2---2-2---2-2---2-2-2-|-1-1-1---1-1---1-1---1-1---1-1-1-|
Eb| |---------------------------------|---------------------------------|

Guitar 1
eb| |---------------------------------|---------------------------------|
Bb| |---------------------------------|---------------------------------|
Gb| |111111--1111--1111--1111--111111-|-9-9-9---9-9---9-9---9-9---9-9-9-|
Db| |-x-x-x---x-x---x-x---x-x---x-x-x-|-x-x-x---x-x---x-x---x-x---x-x-x-|
Ab| |-9-9-9---9-9---9-9---9-9---9-9-9-|-7-7-7---7-7---7-7---7-7---7-7-7-|
Eb| |---------------------------------|---------------------------------|
      Little pieces that                avoid an awful crime Still it's |
                                                                        |
Guitar 2                                                                |
eb| |---------------------------------|---------------------------------|
Bb| |---------------------------------|---------------------------------|
Gb| |-7-7-7---7-7---7-7---7-7---7-7-7-|-6-6-6---6-6---6-2---2-2---2-2-2-|
Db| |-7-7-7---7-7---7-7---7-7---7-7-7-|-7-7-7---7-7---7-2---2-2---2-2-2-|
Ab| |-5-5-5---5-5---5-5---5-5---5-5-5-|-4-4-4---4-4---4-0---0-0---0-0-0-|
Eb| |---------------------------------|---------------------------------|

Guitar 1
eb| |---------------------------------|---------------------------------|
Bb| |---------------------------------|---------------------------------|
Gb| |111111--1111--1111--1111--111111-|121212--1212--1212--1212--121212-|
Db| |-x-x-x---x-x---x-x---x-x---x-x-x-|-x-x-x---x-x---x-x---x-x---x-x-x-|
Ab| |-9-9-9---9-9---9-9---9-9---9-9-9-|101010--1010--1010--1010--101010-|
Eb| |---------------------------------|---------------------------------|
      You I can't deny                                                  |
                                        (You I can't deny)              |
                                                                        |
Guitar 2                                                                |
eb| |---------------------------------|---------------------------------|
Bb| |---------------------------------|---------------------------------|
Gb| |-4-4-4---4-4---4-4---4-4---4-4-4-|-3-3-3---3-3---3-3---3-3---3-3-3-|
Db| |-4-4-4---4-4---4-4---4-4---4-4-4-|-4-4-4---4-4---4-4---4-4---4-4-4-|
Ab| |-2-2-2---2-2---2-2---2-2---2-2-2-|-1-1-1---1-1---1-1---1-1---1-1-1-|
Eb| |---------------------------------|---------------------------------|

 _______________________
| Interlude (1:02-1:16) |
|_______________________|


Guitar 1
eb| |---------------------------------|---------------------------------|
Bb| |o--------------------------------|--------------------------------o|
Gb| |---------------------------------|---------------------------------|
Db| |-9----------9/11-7-----------5-4-|-5-4-----0-----------------------|
Ab| |o--------------------------------|-------------0-2----------------o|
Eb| |---------------------------------|---------------------------------|
   1.                                                                   |
   2.                                                                   |
                                                                        |
Guitar 2                                                                |
eb| |---------------------------------|---------------------------------|
Bb| |o--------------------------------|--------------------------------o|
Gb| |-4-----------4-6-------------6-7-|---------------------------------|
Db| |-4-----------4-6-------------6-7-|-------------7-9-----------------|
Ab| |o2-----------2-4-------------4-5-|-------------7-9----------------o|
Eb| |---------------------------------|-------------5-7-----------------|

 ___________________
| Verse (1:16-1:44) |
|___________________|

Guitar 1
eb| |---------------------------------|---------------------------------|
Bb| |o------------7*--------------7*--|-------------7*--------------7*-o|
Gb| |---------7*--------------5*------|---------7*--------------5*------|
Db| |-9\7-0~----------5/7-0~----------|-9\7-0~----------5/7-0~----------|
Ab| |o--------------------------------|--------------------------------o|
Eb| |---------------------------------|---------------------------------|
   1. Dull            heat              rises from the sheets I'm both  |
                                                              a patient |
   2. Boy             and a jealous man                                 |
                                        (Am I coming...)                |
                                                                        |
Guitar 2                                                                |
eb| |---------------------------------|---------------------------------|
Bb| |o--------------------------------|--------------------------------o|
Gb| |-4-4-4-4-4-4-4-4-6-6-6-6-6-6-6-6-|-7-7-7-7-7-7-7-7-----------------|
Db| |-4-4-4-4-4-4-4-4-6-6-6-6-6-6-6-6-|-7-7-7-7-7-7-7-7-5-5-5-5-5-5-5-5-|
Ab| |o2-2-2-2-2-2-2-2-4-4-4-4-4-4-4-4-|-5-5-5-5-5-5-5-5-5-5-5-5-5-5-5-5o|
Eb| |---------------------------------|-----------------3-3-3-3-3-3-3-3-|
      * * * * * * * * * * * * * * * *   * * * * * * * * * * * * * * * *

Guitar 1
eb| |---------------------------------|---------------------------------|
Bb| |-------------7*--------------7*--|---------------------------------|
Gb| |---------7*--------------5*------|-7~------------------------------|
Db| |-9\7-0~----------5/7-0~----------|-7~--------------5~--------------|
Ab| |---------------------------------|-5~--------------5~--------------|
Eb| |---------------------------------|-----------------3~--------------|
      My double standardized suspicion is remedy      Oh my blue heaven |
                                                                        |
Guitar 2                                                                |
eb| |---------------------------------|---------------------------------|
Bb| |---------------------------------|---------------------------------|
Gb| |-4-4-------------6-6-------------|-7~------------------------------|
Db| |-4-4-------------6-6-------------|-7~--------------5~--------------|
Ab| |-2-2-------------4-4-------------|-5~--------------5~--------------|
Eb| |---------------------------------|-----------------3~--------------|

Guitar 1 & 2
eb| |---------------------------------|---------------------------------|
Bb| |---------------------------------|---------------------------------|
Gb| |-4-4-4-4-4-4-4-4-6-6-6-6-6-6-6-6-|---------------------------------|
Db| |-4-4-4-4-4-4-4-4-6-6-6-6-6-6-6-6-|-5-5-5-5-5-5-5-5-5-5-5-5---5---5-|
Ab| |-2-2-2-2-2-2-2-2-4-4-4-4-4-4-4-4-|-5-5-5-5-5-5-5-5-5-5-5-5---5---5-|
Eb| |---------------------------------|-3-3-3-3-3-3-3-3-3-3-3-3---3---3-|
      * * * * * * * * * * * * * * * *   * * * * * * * *
      Sometimes it just feels better to give in
                                        (Sometimes      feels better
                                         it just        to give in  )

 ____________________
| Chorus (1:44-2:11) |
|____________________|

Guitar 1
eb| |---------------------------------|---------------------------------|
Bb| |---------------------------------|---------------------------------|
Gb| |111111--1111--1111--1111--111111-|121212--1212--1212--1212--1212/14|
Db| |-x-x-x---x-x---x-x---x-x---x-x-x-|-x-x-x---x-x---x-x---x-x---x-x-x-|
Ab| |-9-9-9---9-9---9-9---9-9---9-9-9-|101010--1010--1010--1010--1010/12|
Eb| |---------------------------------|---------------------------------|
      And it's all too familiar         And it happens all the time     |
                                                                        |
Guitar 2                                                                |
eb| |---------------------------------|---------------------------------|
Bb| |---------------------------------|---------------------------------|
Gb| |-7-7-7---7-7---7-7---7-7---7-7-7-|-6-6-6---6-6---6-6---6-6---6-6-6-|
Db| |-7-7-7---7-7---7-7---7-7---7-7-7-|-7-7-7---7-7---7-7---7-7---7-7-7-|
Ab| |-5-5-5---5-5---5-5---5-5---5-5-5-|-4-4-4---4-4---4-4---4-4---4-4-4-|
Eb| |---------------------------------|---------------------------------|

Guitar 1
eb| |---------------------------------|---------------------------------|
Bb| |---------------------------------|---------------------------------|
Gb| |111111--1111--1111--1111--111111-|121212--1212--1212--1212--121212-|
Db| |-x-x-x---x-x---x-x---x-x---x-x-x-|-x-x-x---x-x---x-x---x-x---x-x-x-|
Ab| |-9-9-9---9-9---9-9---9-9---9-9-9-|101010--1010--1010--1010--101010-|
Eb| |---------------------------------|---------------------------------|
      All the cards begin to stack up   Twisting heartache into fine    |
                                                                        |
Guitar 2                                                                |
eb| |---------------------------------|---------------------------------|
Bb| |---------------------------------|---------------------------------|
Gb| |-4-4-4---4-4---4-4---4-4---4-4-4-|-3-3-3---3-3---3-3---3-3---3-3-3-|
Db| |-4-4-4---4-4---4-4---4-4---4-4-4-|-4-4-4---4-4---4-4---4-4---4-4-4-|
Ab| |-2-2-2---2-2---2-2---2-2---2-2-2-|-1-1-1---1-1---1-1---1-1---1-1-1-|
Eb| |---------------------------------|---------------------------------|

Guitar 1
eb| |---------------------------------|---------------------------------|
Bb| |---------------------------------|---------------------------------|
Gb| |111111--1111--1111--1111--111111-|-9-9-9---9-9---9-9---9-9---9-9-9-|
Db| |-x-x-x---x-x---x-x---x-x---x-x-x-|-x-x-x---x-x---x-x---x-x---x-x-x-|
Ab| |-9-9-9---9-9---9-9---9-9---9-9-9-|-7-7-7---7-7---7-7---7-7---7-7-7-|
Eb| |---------------------------------|---------------------------------|
      Little pieces that                avoid an awful crime Still it's |
                                                                        |
Guitar 2                                                                |
eb| |---------------------------------|---------------------------------|
Bb| |---------------------------------|---------------------------------|
Gb| |-7-7-7---7-7---7-7---7-7---7-7-7-|-6-6-6---6-6---6-2---2-2---2-2-2-|
Db| |-7-7-7---7-7---7-7---7-7---7-7-7-|-7-7-7---7-7---7-2---2-2---2-2-2-|
Ab| |-5-5-5---5-5---5-5---5-5---5-5-5-|-4-4-4---4-4---4-0---0-0---0-0-0-|
Eb| |---------------------------------|---------------------------------|

Guitar 1
eb| |---------------------------------|---------------------------------|
Bb| |---------------------------------|---------------------------------|
Gb| |111111--1111--1111--1111--111111-|121212--1212--1212--1212--121212-|
Db| |-x-x-x---x-x---x-x---x-x---x-x-x-|-x-x-x---x-x---x-x---x-x---x-x-x-|
Ab| |-9-9-9---9-9---9-9---9-9---9-9-9-|101010--1010--1010--1010--101010-|
Eb| |---------------------------------|---------------------------------|
      You I can't deny                                                  |
                                        (You I can't deny)              |
                                                                        |
Guitar 2                                                                |
eb| |---------------------------------|---------------------------------|
Bb| |---------------------------------|---------------------------------|
Gb| |-4-4-4---4-4---4-4---4-4---4-4-4-|-3-3-3---3-3---3-3---3-3---3-3-3-|
Db| |-4-4-4---4-4---4-4---4-4---4-4-4-|-4-4-4---4-4---4-4---4-4---4-4-4-|
Ab| |-2-2-2---2-2---2-2---2-2---2-2-2-|-1-1-1---1-1---1-1---1-1---1-1-1-|
Eb| |---------------------------------|---------------------------------|

 ____________________
| Bridge (2:12-2:25) |
|____________________|

Guitar 1
eb| |---------------------------------|---------------------------------|
Bb| |---------------------------------|---------------------------------|
Gb| |-9-9-9-9-9-9-9-9-9-9-9-9-9-9-911-|-9-9-9-9-9-9-9-9-9-9-9-9-9-9-9-9\|
Db| |-x-x-x-x-x-x-x-x-x-x-x-x-x-x-x-x-|-x-x-x-x-x-x-x-x-x-x-x-x-x-x-x-x-|
Ab| |-7-7-7-7-7-7-7-7-7-7-7-7-7-7-7/9-|-7-7-7-7-7-7-7-7-7-7-7-7-7-7-7-7\|
Eb| |---------------------------------|---------------------------------|
      We swing and we sway as the tiny voice in my heard starts to sing |
                                                                        |
Guitar 2                                                                |
eb| |---------------------------------|---------------------------------|
Bb| |---------------------------------|---------------------------------|
Gb| |---------------------------------|---------------------------------|
Db| |-7-7-7-7-7-7-7-7-7-7-7-7-7-7-7-7-|-6-6-6-6-6-6-6-6-6-6-6-6-6-6-6-6-|
Ab| |-7-7-7-7-7-7-7-7-7-7-7-7-7-7-7-7-|-7-7-7-7-7-7-7-7-7-7-7-7-7-7-7-7-|
Eb| |-5-5-5-5-5-5-5-5-5-5-5-5-5-5-5-5-|-4-4-4-4-4-4-4-4-4-4-4-4-4-4-4-4-|

Guitar 1
eb| |---------------------------------|---------------------------------|
Bb| |---------------------------------|---------------------------------|
Gb| |-7-7-7-7-7-7-7-7-7-7-7-7-7-7-7-7-|15151515151515151515151515151515-|
Db| |-x-x-x-x-x-x-x-x-x-x-x-x-x-x-x-x-|-x-x-x-x-x-x-x-x-x-x-x-x-x-x-x-x-|
Ab| |-5-5-5-5-5-5-5-5-5-5-5-5-5-5-5-5-|13131313131313131313131313131313-|
Eb| |---------------------------------|---------------------------------|
      You're safe child you are safe    You're safe child you are       |
                                                                        |
Guitar 2                                                                |
eb| |---------------------------------|---------------------------------|
Bb| |---------------------------------|---------------------------------|
Gb| |---------------------------------|---------------------------------|
Db| |-5-5-5-5-5-5-5-5-5-5-5-5-5-5-5-5-|-5-5-5-5-5-5-5-5-5-5-5-5-5-5-5-5-|
Ab| |-5-5-5-5-5-5-5-5-5-5-5-5-5-5-5-5-|-5-5-5-5-5-5-5-5-5-5-5-5-5-5-5-5-|
Eb| |-3-3-3-3-3-3-3-3-3-3-3-3-3-3-3-3-|-3-3-3-3-3-3-3-3-3-3-3-3-3-3-3-3-|
                                        * * * * * * * * * * * * * * * *

Guitar 1
eb| |-----------------|
Bb| |-----------------|
Gb| |14~--------------|
Db| |-x---------------|
Ab| |12~--------------|
Eb| |-----------------|
      Safe            |
Guitar 2              |
eb| |-----------------|
Bb| |-----------------|
Gb| |-7~--------------|
Db| |-7~--------------|
Ab| |-5~--------------|
Eb| |-----------------|

 _______________________
| Interlude (2:25-2:55) |
|_______________________|

Guitar 1
eb| |-------------0-------0-----------|---------------0-------0---------|
Bb| |-3---3---------3---3---3---3-----|-------3---------3---3---3---3---|
Gb| |-2---2-----2-----2-------2-------|-------2-----2-----2-------2-----|
Db| |-0---0---------------------------|-0-----0-------------------------|
Ab| |---------------------------------|-4-------------------------------|
Eb| |---------------------------------|---------------------------------|

Guitar 1
eb| |---------------------------------|---------------------------------|
Bb| |------------------------3--------|-3~----------------------3-------|
Gb| |-2~-------------------2---2---2--|-2~--------------------2---2---2-|
Db| |-0~-------------------------0----|-0~--------------------------0---|
Ab| |-2~------------------------------|-1~------------------------------|
Eb| |---------------------------------|---------------------------------|

Guitar 1
eb| |-------------0-------0-----------|---------------0-------0---------|
Bb| |-3---3---------3---3---3---3-----|-------3---------3---3---3---3---|
Gb| |-2---2-----2-----2-------2-------|-------2-----2-----2-------2-----|
Db| |-0---0---------------------------|-0-----0-------------------------|
Ab| |---------------------------------|-4-------------------------------|
Eb| |---------------------------------|---------------------------------|
      We swing and we sway as the tiny voice in my heard starts to sing |
                                                                        |
Guitar 2                                                                |
eb| |------------14----------15--14---|------------14----------15--14---|
Bb| |--------15-----------------------|--------15-----------------------|
Gb| |1614------------1214-------------|1614------------1214-------------|
Db| |----12--------------12-----------|----12--------------12-----------|
Ab| |---------------------------------|---------------------------------|
Eb| |---------------------------------|---------------------------------|

Guitar 1
eb| |---------------------------------|---------------------------------|
Bb| |------------------------3--------|-3~------------------------------|
Gb| |-2~-------------------2---2---2--|-2~------------------------------|
Db| |-0~-------------------------0----|-0~------------------------------|
Ab| |-2~------------------------------|-1~------------------------------|
Eb| |---------------------------------|---------------------------------|
      You're safe child you are safe    You're safe child you are       |
                                                                        |
Guitar 2                                                                |
eb| |------------14----------15--14---|---------------------------------|
Bb| |--------15-----------------------|15~------------------------------|
Gb| |1614------------1214-------------|14~------------------------------|
Db| |----12--------------12-----------|12~------------------------------|
Ab| |---------------------------------|---------------------------------|
Eb| |---------------------------------|---------------------------------|

 ____________________
| Chorus (2:55-3:20) |
|____________________|

Guitar 1
eb| |---------------------------------|---------------------------------|
Bb| |---------------------------------|---------------------------------|
Gb| |11111111111111111111111111111111-|121212121212121212121212121212/14|
Db| |-x-x-x-x-x-x-x-x-x-x-x-x-x-x-x-x-|-x-x-x-x-x-x-x-x-x-x-x-x-x-x-x-x-|
Ab| |-9-9-9-9-9-9-9-9-9-9-9-9-9-9-9-9-|101010101010101010101010101010/12|
Eb| |---------------------------------|---------------------------------|
      Safe...                                                           |
              (Safe...)                     (Safe...)                   |
                                                                        |
Guitar 2                                                                |
eb| |---------------------------------|---------------------------------|
Bb| |---------------------------------|---------------------------------|
Gb| |-7-7-7-7-7-7-7-7-7-7-7-7-7-7-7-7-|-6-6-6-6-6-6-6-6-6-6-6-6-6-6-6-6-|
Db| |-7-7-7-7-7-7-7-7-7-7-7-7-7-7-7-7-|-7-7-7-7-7-7-7-7-7-7-7-7-7-7-7-7-|
Ab| |-5-5-5-5-5-5-5-5-5-5-5-5-5-5-5-5-|-4-4-4-4-4-4-4-4-4-4-4-4-4-4-4-4-|
Eb| |---------------------------------|---------------------------------|

Guitar 1
eb| |---------------------------------|---------------------------------|
Bb| |---------------------------------|---------------------------------|
Bb| |---------------------------------|---------------------------------|
Gb| |11111111111111111111111111111111-|12121212121212121212121212121212-|
Db| |-x-x-x-x-x-x-x-x-x-x-x-x-x-x-x-x-|-x-x-x-x-x-x-x-x-x-x-x-x-x-x-x-x-|
Ab| |-9-9-9-9-9-9-9-9-9-9-9-9-9-9-9-9-|10101010101010101010101010101010-|
Eb| |---------------------------------|---------------------------------|
      You are safe...                                                   |
             (Safe...)                                                  |
                                                                        |
Guitar 2                                                                |
eb| |---------------------------------|---------------------------------|
Bb| |---------------------------------|---------------------------------|
Gb| |-4-4-4-4-4-4-4-4-4-4-4-4-4-4-4-4-|-3-3-3-3-3-3-3-3-3-3-3-3-3-3-3-3-|
Db| |-4-4-4-4-4-4-4-4-4-4-4-4-4-4-4-4-|-4-4-4-4-4-4-4-4-4-4-4-4-4-4-4-4-|
Ab| |-2-2-2-2-2-2-2-2-2-2-2-2-2-2-2-2-|-1-1-1-1-1-1-1-1-1-1-1-1-1-1-1-1-|
Eb| |---------------------------------|---------------------------------|

Guitar 1
eb| |---------------------------------|---------------------------------|
Bb| |---------------------------------|---------------------------------|
Gb| |11111111111111111111111111111111-|-9-9-9-9-9-9-9-9-9-9-9-9-9-9-9-9-|
Db| |-x-x-x-x-x-x-x-x-x-x-x-x-x-x-x-x-|-x-x-x-x-x-x-x-x-x-x-x-x-x-x-x-x-|
Ab| |-9-9-9-9-9-9-9-9-9-9-9-9-9-9-9-9-|-7-7-7-7-7-7-7-7-7-7-7-7-7-7-7-7-|
Eb| |---------------------------------|---------------------------------|
      We swing and we sway as the tiny voice in my heard starts to sing |
                                                                        |
Guitar 2                                                                |
eb| |---------------------------------|---------------------------------|
Bb| |---------------------------------|---------------------------------|
Gb| |-7-7-7-7-7-7-7-7-7-7-7-7-7-7-7-7-|-6-6-6-6-6-6-6-6-6-6-6-6-6-6-6-6-|
Db| |-7-7-7-7-7-7-7-7-7-7-7-7-7-7-7-7-|-7-7-7-7-7-7-7-7-7-7-7-7-7-7-7-7-|
Ab| |-5-5-5-5-5-5-5-5-5-5-5-5-5-5-5-5-|-4-4-4-4-4-4-4-4-4-4-4-4-4-4-4-4-|
Eb| |---------------------------------|---------------------------------|

Guitar 1
eb| |---------------------------------|---------------------------------|
Bb| |---------------------------------|---------------------------------|
Gb| |11111111111111111111111111111111-|12121212121212121212121212121212-|
Db| |-x-x-x-x-x-x-x-x-x-x-x-x-x-x-x-x-|-x-x-x-x-x-x-x-x-x-x-x-x-x-x-x-x-|
Ab| |-9-9-9-9-9-9-9-9-9-9-9-9-9-9-9-9-|10101010101010101010101010101010-|
Eb| |---------------------------------|---------------------------------|
      You're safe child you are safe                     Coming through |
      (Am I coming...)                 (Am I...)                        |
                                                                        |
Guitar 2                                                                |
eb| |---------------------------------|---------------------------------|
Bb| |---------------------------------|---------------------------------|
Gb| |-4-4-4-4-4-4-4-4-4-4-4-4-4-4-4-4-|-3-3-3-3-3-3-3-3-3-3-3-3-3-3-3-3-|
Db| |-4-4-4-4-4-4-4-4-4-4-4-4-4-4-4-4-|-4-4-4-4-4-4-4-4-4-4-4-4-4-4-4-4-|
Ab| |-2-2-2-2-2-2-2-2-2-2-2-2-2-2-2-2-|-1-1-1-1-1-1-1-1-1-1-1-1-1-1-1-1-|
Eb| |---------------------------------|---------------------------------|

 ___________________
| Outro (3:20-4:09) |
|___________________|

Guitar 1 & 2
eb| |---------------------------------|---------------------------------|
Bb| |---------------------------------|---------------------------------|
Gb| |-7-7-7---7-7---7-7---7-7---7-7-7-|-6-6-6---6-6---6-6---6-6---6-6-6-|
Db| |-7-7-7---7-7---7-7---7-7---7-7-7-|-7-7-7---7-7---7-7---7-7---7-7-7-|
Ab| |-5-5-5---5-5---5-5---5-5---5-5-5-|-4-4-4---4-4---4-4---4-4---4-4-4-|
Eb| |---------------------------------|---------------------------------|
      And it's all too familiar         And it happens all the time

Guitar 1 & 2
eb| |---------------------------------|---------------------------------|
Bb| |---------------------------------|---------------------------------|
Gb| |-4-4-4---4-4---4-4---4-4---4-4-4-|-3-3-3---3-3---3-3---3-3---3-3-3-|
Db| |-4-4-4---4-4---4-4---4-4---4-4-4-|-4-4-4---4-4---4-4---4-4---4-4-4-|
Ab| |-2-2-2---2-2---2-2---2-2---2-2-2-|-1-1-1---1-1---1-1---1-1---1-1-1-|
Eb| |---------------------------------|---------------------------------|
      Well I'm just asking you to hear me could you please just once
                                                           just hear me

Guitar 1 & 2
eb| |---------------------------------|---------------------------------|
Bb| |---------------------------------|---------------------------------|
Gb| |-7-7-7---7-7---7-7---7-7---7-7-7-|---------------------------------|
Db| |-7-7-7---7-7---7-7---7-7---7-7-7-|-4-4-4---4-4---4-4---4-4---4-4-4-|
Ab| |-5-5-5---5-5---5-5---5-5---5-5-5-|-4-4-4---4-4---4-4---4-4---4-4-4-|
Eb| |---------------------------------|-2-2-2---2-2---2-2---2-2---2-2-2-|
      More then anything you            wanted to be right... Still it's

Guitar 1 & 2
eb| |---------------------------------|---------------------------------|
Bb| |---------------------------------|---------------------------------|
Gb| |-4-4-4---4-4---4-4---4-4---4-4-4-|-3-3-3---3-3---3-3---3-3---3-3-3-|
Db| |-4-4-4---4-4---4-4---4-4---4-4-4-|-4-4-4---4-4---4-4---4-4---4-4-4-|
Ab| |-2-2-2---2-2---2-2---2-2---2-2-2-|-1-1-1---1-1---1-1---1-1---1-1-1-|
Eb| |---------------------------------|---------------------------------|
      You... you... It's                you I can't deny

Guitar 1
eb| |---------------------------------|---------------------------------|
Bb| |---------------------------------|---------------------------------|
Gb| |11111111111111111111111111111111-|12121212121212121212121212121212-|
Db| |-x-x-x-x-x-x-x-x-x-x-x-x-x-x-x-x-|-x-x-x-x-x-x-x-x-x-x-x-x-x-x-x-x-|
Ab| |-9-9-9-9-9-9-9-9-9-9-9-9-9-9-9-9-|10101010101010101010101010101010-|
Eb| |---------------------------------|---------------------------------|
                                        It's you I can't deny           |
      (You I can't deny...)                                             |
                                                                        |
Guitar 2                                                                |
eb| |---------------------------------|---------------------------------|
Bb| |---------------------------------|---------------------------------|
Gb| |-4-4-4-4-4-4-4-4-4-4-4-4-4-4-4-4-|-3-3-3-3-3-3-3-3-3-3-3-3-3-3-3-3-|
Db| |-4-4-4-4-4-4-4-4-4-4-4-4-4-4-4-4-|-4-4-4-4-4-4-4-4-4-4-4-4-4-4-4-4-|
Ab| |-2-2-2-2-2-2-2-2-2-2-2-2-2-2-2-2-|-1-1-1-1-1-1-1-1-1-1-1-1-1-1-1-1-|
Eb| |---------------------------------|---------------------------------|

Guitar 1
eb| |---------------------------------|---------------------------------|
Bb| |-------------7*--------------7*--|---------------------------------|
Gb| |---------7*--------------5*------|-7*------------------------------|
Db| |-9\7-0~----------5/7-0~----------|-7*------------------------------|
Ab| |---------------------------------|---------------------------------|
Eb| |---------------------------------|---------------------------------|
                                                                        |
Guitar 2                                                                |
eb| |---------------------------------|---------------------------------|
Bb| |---------------------------------|---------------------------------|
Gb| |-7~------------------------------|---------------------------------|
Db| |-7~------------------------------|---------------------------------|
Ab| |-5~------------------------------|---------------------------------|
Eb| |---------------------------------|---------------------------------|


 _______________________
| Twenty-Twenty Surgery |
|_______________________|

Tuning: Half-Step Down
Guitar 1- Distortion
Guitar 2- Distortion

 ___________________
| Intro (0:00-0:13) |
|___________________|

Guitar 1
eb| |---------------------------------|---------------------------------|
Bb| |---------------------------------|---------------------------------|
Gb| |14----131313---9---9---6-6-6-6\/-|14----131313---9---9---6-6-6-6\/-|
Db| |-x-----x-x-x---x---x---x-x-x-x---|-x-----x-x-x---x---x---x-x-x-x---|
Ab| |12----111111---7---7---4-4-4-4\/-|12----111111---7---7---4-4-4-4\/-|
Eb| |---------------------------------|---------------------------------|
                                                                        |
Guitar 2                                                                |
eb| |---------------------------------|---------------------------------|
Bb| |---------------------------------|---------------------------------|
Gb| |---------------------------------|-----------------7-7-7-7-7-7-7-7-|
Db| |-4-4-4-4-4-4-4-4-4-4-4-4-4-4-4-4-|-7-7-7-7-7-7-7-7-7-7-7-7-7-7-7-7-|
Ab| |-4-4-4-4-4-4-4-4-4-4-4-4-4-4-4-4-|-7-7-7-7-7-7-7-7-5-5-5-5-5-5-5-5-|
Eb| |-2-2-2-2-2-2-2-2-2-2-2-2-2-2-2-2-|-5-5-5-5-5-5-5-5-----------------|

Guitar 1
eb| |---------------------------------|---------------------------------|
Bb| |---------------------------------|---------------------------------|
Gb| |14----131313---9---9---6-6-6-6\/-|16~------9--11~------7~----------|
Db| |-x-----x-x-x---x---x---x-x-x-x---|-x-------x---x-------x-----------|
Ab| |12----111111---7---7---4-4-4-4\/-|14~------7---9~------5~----------|
Eb| |---------------------------------|---------------------------------|
                                                                        |
Guitar 2                                                                |
eb| |---------------------------------|---------------------------------|
Bb| |---------------------------------|---------------------------------|
Gb| |---------------------------------|---------------------------------|
Db| |-4-4-4-4-4-4-4-4-4-4-4-4-4-4-4-4-|-5-5-5-5-5-5-5-5-5-5-5-5-5-5-5-5-|
Ab| |-4-4-4-4-4-4-4-4-4-4-4-4-4-4-4-4-|-5-5-5-5-5-5-5-5-5-5-5-5-5-5-5-5-|
Eb| |-2-2-2-2-2-2-2-2-2-2-2-2-2-2-2-2-|-3-3-3-3-3-3-3-3-3-3-3-3-3-3-3-3-|

 ___________________
| Verse (0:13-0:46) |
|___________________|

Guitar 1
eb| |---------------------------------|---------------------------------|
Bb| |---------------------------------|---------------------------------|
Gb| |---------------------------------|----------------13----------13---|
Db| |---------------------------------|-----------------------(11)------|
Ab| |---------------------------------|--------------------11-----------|
Eb| |---------------------------------|---------------------------------|
      I'll take with me every single luxury when I leave you

Guitar 1
eb| |---------------------------------|---------------------------------|
Bb| |---------------------------------|---------------------------------|
Gb| |--------13----------13-----------|13----------13----------13-------|
Db| |---(11)--------(11)--------(11)--|-------(11)--------(11)----------|
Ab| |11----------11----------11-------|----11----------11----------11---|
Eb| |---------------------------------|---------------------------------|
      Count on me for that and nothing more
                                   (Count on me for that and nothing more)

Guitar 1 & 2
eb| |---------------------------------|---------------------------------|
Bb| |---------------------------------|---------------------------------|
Gb| |-7-7-7-7-7-7-7-7-7-7-7-7-7-7-7-7-|-9-9-9-9-9-9-9-9-9-9-9-9-9-9-9-9-|
Db| |-7-7-7-7-7-7-7-7-7-7-7-7-7-7-7-7-|-9-9-9-9-9-9-9-9-9-9-9-9-9-9-9-9-|
Ab| |-5-5-5-5-5-5-5-5-5-5-5-5-5-5-5-5-|-7-7-7-7-7-7-7-7-7-7-7-7-7-7-7-7-|
Eb| |---------------------------------|---------------------------------|
      The view from this side is not what The view from this side is not what

Guitar 1
eb| |---------------------------------|---------------------------------|
Bb| |---------------------------------|---------------------------------|
Gb| |--------13----------13-----------|13----------13----------13-------|
Db| |---(11)--------(11)--------(11)--|-------(11)--------(11)----------|
Ab| |11----------11----------11-------|----11----------11----------11---|
Eb| |---------------------------------|---------------------------------|
      I'd thought it be   Promised something different we close our eyes

Guitar 1
eb| |---------------------------------|---------------------------------|
Bb| |---------------------------------|---------------------------------|
Gb| |--------13----------13-----------|13----------13----------13-------|
Db| |---(11)--------(11)--------(11)--|-------(11)--------(11)----------|
Ab| |11----------11----------11-------|----11----------11----------11---|
Eb| |---------------------------------|---------------------------------|
      And let go of the wheel...                                        |
                                                                        |
Guitar 2                                                                |
eb| |---------------------------------|---------------------------------|
Bb| |---------------------------------|---------------------------------|
Gb| |11--11--11--11--11---9-9-9-9-9-9-|11--11--11--11--11---9-9-9-6-6-6-|
Db| |-x---x---x---x---x---x-x-x-x-x-x-|-x---x---x---x---x---x-x-x-x-x-x-|
Ab| |-9---9---9---9---9---7-7-7-7-7-7-|-9---9---9---9---9---7-7-7-4-4-4-|
Eb| |---------------------------------|---------------------------------|

 ________________________
| Pre-Chorus (0:46-0:59) |
|________________________|

Guitar 1 & 2
eb| |---------------------------------|---------------------------------|
Bb| |---------------------------------|---------------------------------|
Gb| |-7-7-7-7-7-7-7-7-7-7-7-7-7-7-7-7-|-9-9-9-9-9-9-9-9-9-9-9-9-9-9-9-9-|
Db| |-7-7-7-7-7-7-7-7-7-7-7-7-7-7-7-7-|-9-9-9-9-9-9-9-9-9-9-9-9-9-9-9-9-|
Ab| |-5-5-5-5-5-5-5-5-5-5-5-5-5-5-5-5-|-7-7-7-7-7-7-7-7-7-7-7-7-7-7-7-7-|
Eb| |---------------------------------|---------------------------------|
      It's not the quantity that bothers me
                                        (It's not the quantity that

Guitar 1
eb| |---------------------------------|---------------------------------|
Bb| |---------------------------------|---------------------------------|
Gb| |---------------------------------|---------------------------------|
Db| |-7-7-7-7-7-7-7-7-7-7-7-7-7-7-7-7-|-9-9-9-9-9-9-9-9-9-9-9-9-9-9-9-9-|
Ab| |-7-7-7-7-7-7-7-7-7-7-7-7-7-7-7-7-|-9-9-9-9-9-9-9-9-9-9-9-9-9-9-9-9-|
Eb| |-5-5-5-5-5-5-5-5-5-5-5-5-5-5-5-5-|-7-7-7-7-7-7-7-7-7-7-7-7-7-7-7-7-|
            It's not the quality that bothers me      ...It's the means |
      bothers me)           (It's not the quality that bother me)       |
                                                                        |
Guitar 2                                                                |
eb| |---------------------------------|---------------------------------|
Bb| |---------------------------------|---------------------------------|
Gb| |---7---7---7---7---7---7---7---7-|---9---9---9---9---9---9---9---9-|
Db| |---------------------------------|---------------------------------|
Ab| |-5---5---5---5---5---5---5---5---|-7---7---7---7---7---7---7---7---|
Eb| |---------------------------------|---------------------------------|

 ____________________
| Chorus (1:00-1:23) |
|____________________|

Guitar 1 & 2
eb| |---------------------------------|---------------------------------|
Bb| |---------------------------------|---------------------------------|
Gb| |---------------------------------|-6-6-6-6-6-6-6-6-6-6-6-6-6-6-6-6-|
Db| |-7-7-7-7-7-7-7-7-7-7-7-7-7-7-7-7-|-6-6-6-6-6-6-6-6-6-6-6-6-6-6-6-6-|
Ab| |-7-7-7-7-7-7-7-7-7-7-7-7-7-7-7-7-|-4-4-4-4-4-4-4-4-4-4-4-4-4-4-4-4-|
Eb| |-5-5-5-5-5-5-5-5-5-5-5-5-5-5-5-5-|---------------------------------|
              Twenty-twenty surgery       Twenty-twenty surgery for cheap

Guitar 1 & 2
eb| |---------------------------------|---------------------------------|
Bb| |---------------------------------|---------------------------------|
Gb| |---------------------------------|---------------------------------|
Db| |-4-4-4-4-4-4-4-4-4-4-4-4-4-4-4-4-|-7-7-7-7-7-7-7-7-7-7-7-7-7-7-7-7-|
Ab| |-4-4-4-4-4-4-4-4-4-4-4-4-4-4-4-4-|-7-7-7-7-7-7-7-7-7-7-7-7-7-7-7-7-|
Eb| |-2-2-2-2-2-2-2-2-2-2-2-2-2-2-2-2-|-5-5-5-5-5-5-5-5-5-5-5-5-5-5-5-5-|
                                                  Twenty-twenty surgery
     (The dollar sign doll up for a picture perfect point of view)

Guitar 1 & 2
eb| |---------------------------------|---------------------------------|
Bb| |---------------------------------|---------------------------------|
Gb| |-6-6-6-6-6-6-6-6-6-6-6-6-6-6-6-6-|---------------------------------|
Db| |-6-6-6-6-6-6-6-6-6-6-6-6-6-6-6-6-|-4-4-4-4-4-4-4-4-4-4-4-4-4-4-4-4-|
Ab| |-4-4-4-4-4-4-4-4-4-4-4-4-4-4-4-4-|-4-4-4-4-4-4-4-4-4-4-4-4-4-4-4-4-|
Eb| |---------------------------------|-2-2-2-2-2-2-2-2-2-2-2-2-2-2-2-2-|
         Twenty-twenty surgery for cheap
                                        (The dollar sign doll up for a
                                         picture perfect point of

Guitar 1
eb| |---------------------------------|
Bb| |---------------------------------|
Gb| |---------------------------------|
Db| |-7-7-7-7-7-7-7-7-7-7-7-7-7-7-7-7~|
Ab| |-7-7-7-7-7-7-7-7-7-7-7-7-7-7-7-7~|
Eb| |-5-5-5-5-5-5-5-5-5-5-5-5-5-5-5-5~|
      view...)                        |
                                      |
Guitar 2                              |
eb| |---------------------------------|
Bb| |---------------------------------|
Gb| |16--16--12--12--11--11---7---7---|
Db| |---------------------------------|
Ab| |--16--16--10--10---9---9---5---5-|
Eb| |---------------------------------|

 ___________________
| Verse (1:23-1:36) |
|___________________|

Guitar 1
eb| |---------------------------------|---------------------------------|
Bb| |---------------------------------|---------------------------------|
Gb| |--------13----------13-----------|13----------13----------13-------|
Db| |---(11)--------(11)--------(11)--|-------(11)--------(11)----------|
Ab| |11----------11----------11-------|----11----------11----------11---|
Eb| |---------------------------------|---------------------------------|
     Well all young children listen because they've got so much to learn|
                                                                        |
Guitar 2                                                                |
eb| |---------------------------------|---------------------------------|
Bb| |---------------------------------|---------------------------------|
Gb| |-6br~----------------------------|---------------------------------|
Db| |---------------------------------|---------------------------------|
Ab| |-----------------0-0-------------|-----------------0-0-------------|
Eb| |---------------2---------------0-|-2-2-----------2---------------0-|

Guitar 1
eb| |---------------------------------|---------------------------------|
Bb| |---------------------------------|---------------------------------|
Gb| |--------13----------13-----------|13----------13----------13-------|
Db| |---(11)--------(11)--------(11)--|-------(11)--------(11)----------|
Ab| |11----------11----------11-------|----11----------11----------11---|
Eb| |---------------------------------|---------------------------------|
      We'll get you home in time to make the rent should be free        |
                                                         for being me   |
                                                                        |
Guitar 2                                                                |
eb| |---------------------------------|---------------------------------|
Bb| |---------------------------------|---------------------------------|
Gb| |---------------------------------|---------------------------------|
Db| |---------------------------------|---------------------------------|
Ab| |-----------------0-0-------------|-----------------0-0-------------|
Eb| |-2-2-----------2---------------0-|-2-2-----------2-----------------|

 ________________________
| Pre-Chorus (1:36-1:49) |
|________________________|

Guitar 1 & 2
eb| |---------------------------------|---------------------------------|
Bb| |---------------------------------|---------------------------------|
Gb| |-7-7-7-7-7-7-7-7-7-7-7-7-7-7-7-7-|-9-9-9-9-9-9-9-9-9-9-9-9-9-9-9-9-|
Db| |-7-7-7-7-7-7-7-7-7-7-7-7-7-7-7-7-|-9-9-9-9-9-9-9-9-9-9-9-9-9-9-9-9-|
Ab| |-5-5-5-5-5-5-5-5-5-5-5-5-5-5-5-5-|-7-7-7-7-7-7-7-7-7-7-7-7-7-7-7-7-|
Eb| |---------------------------------|---------------------------------|
      It's not the quantity that bothers me
                                        (It's not the quantity that

Guitar 1
eb| |---------------------------------|---------------------------------|
Bb| |---------------------------------|---------------------------------|
Gb| |---------------------------------|---------------------------------|
Db| |-7-7-7-7-7-7-7-7-7-7-7-7-7-7-7-7-|-9-9-9-9-9-9-9-9-9-9-9-9-9-9-9-9-|
Ab| |-7-7-7-7-7-7-7-7-7-7-7-7-7-7-7-7-|-9-9-9-9-9-9-9-9-9-9-9-9-9-9-9-9-|
Eb| |-5-5-5-5-5-5-5-5-5-5-5-5-5-5-5-5-|-7-7-7-7-7-7-7-7-7-7-7-7-7-7-7-7-|
            It's not the quality that bothers me      ...It's the means |
      bothers me)           (It's not the quality that bother me)       |
                                                                        |
Guitar 2                                                                |
eb| |---------------------------------|---------------------------------|
Bb| |---------------------------------|---------------------------------|
Gb| |---7---7---7---7---7---7---7---7-|---9---9---9---9---9---9---9---9-|
Db| |---------------------------------|---------------------------------|
Ab| |-5---5---5---5---5---5---5---5---|-7---7---7---7---7---7---7---7---|
Eb| |---------------------------------|---------------------------------|

 ____________________
| Chorus (1:49-2:12) |
|____________________|

Guitar 1 & 2
eb| |---------------------------------|---------------------------------|
Bb| |---------------------------------|---------------------------------|
Gb| |---------------------------------|-6-6-6-6-6-6-6-6-6-6-6-6-6-6-6-6-|
Db| |-7-7-7-7-7-7-7-7-7-7-7-7-7-7-7-7-|-6-6-6-6-6-6-6-6-6-6-6-6-6-6-6-6-|
Ab| |-7-7-7-7-7-7-7-7-7-7-7-7-7-7-7-7-|-4-4-4-4-4-4-4-4-4-4-4-4-4-4-4-4-|
Eb| |-5-5-5-5-5-5-5-5-5-5-5-5-5-5-5-5-|---------------------------------|
              Twenty-twenty surgery       Twenty-twenty surgery for cheap

Guitar 1 & 2
eb| |---------------------------------|---------------------------------|
Bb| |---------------------------------|---------------------------------|
Gb| |---------------------------------|---------------------------------|
Db| |-4-4-4-4-4-4-4-4-4-4-4-4-4-4-4-4-|-7-7-7-7-7-7-7-7-7-7-7-7-7-7-7-7-|
Ab| |-4-4-4-4-4-4-4-4-4-4-4-4-4-4-4-4-|-7-7-7-7-7-7-7-7-7-7-7-7-7-7-7-7-|
Eb| |-2-2-2-2-2-2-2-2-2-2-2-2-2-2-2-2-|-5-5-5-5-5-5-5-5-5-5-5-5-5-5-5-5-|
                                                  Twenty-twenty surgery
     (The dollar sign doll up for a picture perfect point of view)

Guitar 1 & 2
eb| |---------------------------------|---------------------------------|
Bb| |---------------------------------|---------------------------------|
Gb| |-6-6-6-6-6-6-6-6-6-6-6-6-6-6-6-6-|---------------------------------|
Db| |-6-6-6-6-6-6-6-6-6-6-6-6-6-6-6-6-|-4-4-4-4-4-4-4-4-4-4-4-4-4-4-4-4-|
Ab| |-4-4-4-4-4-4-4-4-4-4-4-4-4-4-4-4-|-4-4-4-4-4-4-4-4-4-4-4-4-4-4-4-4-|
Eb| |---------------------------------|-2-2-2-2-2-2-2-2-2-2-2-2-2-2-2-2-|
         Twenty-twenty surgery for cheap
                                        (The dollar sign doll up for a
                                         picture perfect point of
Guitar 1
eb| |---------------------------------|
Bb| |---------------------------------|
Gb| |16--16--12--12--11--11---7-9-11/-|
Db| |---------------------------------|
Ab| |--16--16--10--10---9---9---------|
Eb| |---------------------------------|
      view...)                        |
                                      |
Guitar 2                              |
eb| |---------------------------------|
Bb| |---------------------------------|
Gb| |---------------------------------|
Db| |-7-7-7-7-7-7-7-7-7-7-7-7-7-7-7-7-|
Ab| |-7-7-7-7-7-7-7-7-7-7-7-7-7-7-7-7-|
Eb| |-5-5-5-5-5-5-5-5-5-5-5-5-5-5-5-5-|

 _______________________
| Interlude (2:13-2:26) |
|_______________________|


Guitar 1
eb| |---------------------------------|---------------------------------|
Bb| |---------------------------------|---------------------------------|
Gb| |14----131313---9---9---6-6-6-6\/-|14----131313---9---9---6-6-6-6\/-|
Db| |-x-----x-x-x---x---x---x-x-x-x---|-x-----x-x-x---x---x---x-x-x-x---|
Ab| |12----111111---7---7---4-4-4-4\/-|12----111111---7---7---4-4-4-4\/-|
Eb| |---------------------------------|---------------------------------|
                                                                        |
Guitar 2                                                                |
eb| |---------------------------------|---------------------------------|
Bb| |---------------------------------|---------------------------------|
Gb| |---------------------------------|-----------------7-7-7-7-7-7-7-7-|
Db| |-4-4-4-4-4-4-4-4-4-4-4-4-4-4-4-4-|-7-7-7-7-7-7-7-7-7-7-7-7-7-7-7-7-|
Ab| |-4-4-4-4-4-4-4-4-4-4-4-4-4-4-4-4-|-7-7-7-7-7-7-7-7-5-5-5-5-5-5-5-5-|
Eb| |-2-2-2-2-2-2-2-2-2-2-2-2-2-2-2-2-|-5-5-5-5-5-5-5-5-----------------|

Guitar 1
eb| |---------------------------------|---------------------------------|
Bb| |---------------------------------|---------------------------------|
Gb| |14----131313---9---9---6-6-6-6\/-|16~------9--11~------7~----------|
Db| |-x-----x-x-x---x---x---x-x-x-x---|-x-------x---x-------x-----------|
Ab| |12----111111---7---7---4-4-4-4\/-|14~------7---9~------5~----------|
Eb| |---------------------------------|---------------------------------|
                                                                        |
Guitar 2                                                                |
eb| |---------------------------------|---------------------------------|
Bb| |---------------------------------|---------------------------------|
Gb| |---------------------------------|---------------------------------|
Db| |-4-4-4-4-4-4-4-4-4-4-4-4-4-4-4-4-|-5-5-5-5-5-5-5-5-5-5-5-5-5-5-5-5-|
Ab| |-4-4-4-4-4-4-4-4-4-4-4-4-4-4-4-4-|-5-5-5-5-5-5-5-5-5-5-5-5-5-5-5-5-|
Eb| |-2-2-2-2-2-2-2-2-2-2-2-2-2-2-2-2-|-3-3-3-3-3-3-3-3-3-3-3-3-3-3-3-3-|

 ____________________
| Bridge (2:26-2:56) |
|____________________|

Guitar 1
eb| |-5*------------------------------|------------------19^-18^-15^----|
Bb| |-5*------------------------------|---------------------------------|
Gb| |---------------------------------|---------------------------------|
Db| |---------------------------------|---------------------------------|
Ab| |---------------------------------|---------------------------------|
Eb| |---------------------------------|---------------------------------|
                                                                        |
Guitar 2                                                                |
eb| |---------------------------------|---------------------------------|
Bb| |---------------------------------|---------------------------------|
Gb| |---------------------------------|---------------------------------|
Db| |-4~------------------------------|---------------------------------|
Ab| |-4~------------------------------|---------------------------------|
Eb| |-2~------------------------------|---------------------------------|

Guitar 1
eb| |14141414141414141414141414141414-|14141414141414141414141414141414-|
Bb| |---------------------------------|---------------------------------|
Gb| |---------------------------------|---------------------------------|
Db| |---------------------------------|---------------------------------|
Ab| |---------------------------------|---------------------------------|
Eb| |---------------------------------|---------------------------------|
                                                                        |
Guitar 2                                                                |
eb| |---------------------------------|---------------------------------|
Bb| |---------------------------------|---------------------------------|
Gb| |11111111111111111111111111111111-|13131313131313131313131313131313-|
Db| |-x-x-x-x-x-x-x-x-x-x-x-x-x-x-x-x-|-x-x-x-x-x-x-x-x-x-x-x-x-x-x-x-x-|
Ab| |-9-9-9-9-9-9-9-9-9-9-9-9-9-9-9-9-|11111111111111111111111111111111-|
Eb| |---------------------------------|---------------------------------|

Guitar 1
eb| |14141414141414141414141414141414-|14141414141414141414141414141414-|
Bb| |---------------------------------|---------------------------------|
Gb| |---------------------------------|---------------------------------|
Db| |---------------------------------|---------------------------------|
Ab| |---------------------------------|---------------------------------|
Eb| |---------------------------------|---------------------------------|
                                                                        |
Guitar 2                                                                |
eb| |---------------------------------|---------------------------------|
Bb| |---------------------------------|---------------------------------|
Gb| |14141414141414141414141414141414-|14141414141414141414141414141414-|
Db| |-x-x-x-x-x-x-x-x-x-x-x-x-x-x-x-x-|-x-x-x-x-x-x-x-x-x-x-x-x-x-x-x-x-|
Ab| |12121212121212121212121212121212-|12121212121212121212121212121212-|
Eb| |---------------------------------|---------------------------------|

Guitar 1 & 2
eb| |---------------------------------|---------------------------------|
Bb| |---------------------------------|---------------------------------|
Gb| |---------------------------------|---------------------------------|
Db| |-4---4-4---4---4-4---4---4---4---|-4---4-4---4---4-4---4-4---------|
Ab| |-4---4-4---4---4-4---4---4---4---|-4---4-4---4---4-4---4-4---------|
Eb| |-2---2-2---2---2-2---2---2---2---|-2---2-2---2---2-2---2-2\*\*/*/*-|
                                                                TP  !!!

 ____________________
| Chorus (2:56-3:15) |
|____________________|

Guitar 1 & 2
eb| |---------------------------------|---------------------------------|
Bb| |---------------------------------|---------------------------------|
Gb| |---------------------------------|-6-6-6-6-6-6-6-6-6-6-6-6-6-6-6-6-|
Db| |-7-7-7-7-7-7-7-7-7-7-7-7-7-7-7-7-|-6-6-6-6-6-6-6-6-6-6-6-6-6-6-6-6-|
Ab| |-7-7-7-7-7-7-7-7-7-7-7-7-7-7-7-7-|-4-4-4-4-4-4-4-4-4-4-4-4-4-4-4-4-|
Eb| |-5-5-5-5-5-5-5-5-5-5-5-5-5-5-5-5-|---------------------------------|
              Twenty-twenty surgery       Twenty-twenty surgery for cheap

Guitar 1 & 2
eb| |---------------------------------|---------------------------------|
Bb| |---------------------------------|---------------------------------|
Gb| |---------------------------------|---------------------------------|
Db| |-4-4-4-4-4-4-4-4-4-4-4-4-4-4-4-4-|-7-7-7-7-7-7-7-7-7-7-7-7-7-7-7-7-|
Ab| |-4-4-4-4-4-4-4-4-4-4-4-4-4-4-4-4-|-7-7-7-7-7-7-7-7-7-7-7-7-7-7-7-7-|
Eb| |-2-2-2-2-2-2-2-2-2-2-2-2-2-2-2-2-|-5-5-5-5-5-5-5-5-5-5-5-5-5-5-5-5-|
                                                  Twenty-twenty surgery
     (The dollar sign doll up for a picture perfect point of view)

Guitar 1 & 2
eb| |---------------------------------|---------------------------------|
Bb| |---------------------------------|---------------------------------|
Gb| |-6-6-6-6-6-6-6-6-6-6-6-6-6-6-6-6-|---------------------------------|
Db| |-6-6-6-6-6-6-6-6-6-6-6-6-6-6-6-6-|-4-4-4-4-4-4-4-4-4-4-4-4-4-4-4-4-|
Ab| |-4-4-4-4-4-4-4-4-4-4-4-4-4-4-4-4-|-4-4-4-4-4-4-4-4-4-4-4-4-4-4-4-4-|
Eb| |---------------------------------|-2-2-2-2-2-2-2-2-2-2-2-2-2-2-2-2-|
         Twenty-twenty surgery for cheap
                                        (The dollar sign doll up for a
                                         picture perfect point of
Guitar 1
eb| |---------------------------------|
Bb| |---------------------------------|
Gb| |16--16--12--12--11--11---7-9-11/-|
Db| |---------------------------------|
Ab| |--16--16--10--10---9---9---------|
Eb| |---------------------------------|
      view...)                        |
                                      |
Guitar 2                              |
eb| |---------------------------------|
Bb| |---------------------------------|
Gb| |---------------------------------|
Db| |-7-7-7-7-7-7-7-7-7-7-7-7-7-7-7-7-|
Ab| |-7-7-7-7-7-7-7-7-7-7-7-7-7-7-7-7-|
Eb| |-5-5-5-5-5-5-5-5-5-5-5-5-5-5-5-5-|

 ___________________
| Outro (3:16-3:55) |
|___________________|

Guitar 1 & 2
eb| |---------------------------------|---------------------------------|
Bb| |---------------------------------|---------------------------------|
Gb| |---------------------------------|-6-6-6-6-6-6-6-6-6-6-6-6-6-6-6-6-|
Db| |-7-7-7-7-7-7-7-7-7-7-7-7-7-7-7-7-|-6-6-6-6-6-6-6-6-6-6-6-6-6-6-6-6-|
Ab| |-7-7-7-7-7-7-7-7-7-7-7-7-7-7-7-7-|-4-4-4-4-4-4-4-4-4-4-4-4-4-4-4-4-|
Eb| |-5-5-5-5-5-5-5-5-5-5-5-5-5-5-5-5-|---------------------------------|
      You're so sensitive               I am, I am a machine

Guitar 1 & 2
eb| |---------------------------------|---------------------------------|
Bb| |---------------------------------|---------------------------------|
Gb| |---------------------------------|-4-4-4-4-4-4-4-4-4-4-4-4-4-4-4-4-|
Db| |-4-4-4-4-4-4-4-4-4-4-4-4-4-4-4-4-|-4-4-4-4-4-4-4-4-4-4-4-4-4-4-4-4-|
Ab| |-4-4-4-4-4-4-4-4-4-4-4-4-4-4-4-4-|-2-2-2-2-2-2-2-2-2-2-2-2-2-2-2-2-|
Eb| |-2-2-2-2-2-2-2-2-2-2-2-2-2-2-2-2-|---------------------------------|
      You're so sensitive               I am, I am a machine

Guitar 1
eb| |---------------------------------|---------------------------------|
Bb| |---------------------------------|---------------------------------|
Gb| |---------------------------------|-6-6-6-6-6-6-6-6-6-6-6-6-6-6-6-6-|
Db| |-7-7-7-7-7-7-7-7-7-7-7-7-7-7-7-7-|-6-6-6-6-6-6-6-6-6-6-6-6-6-6-6-6-|
Ab| |-7-7-7-7-7-7-7-7-7-7-7-7-7-7-7-7-|-4-4-4-4-4-4-4-4-4-4-4-4-4-4-4-4-|
Eb| |-5-5-5-5-5-5-5-5-5-5-5-5-5-5-5-5-|---------------------------------|
      You're so sensitive               I am, I am a machine            |
                                                                        |
Guitar 2                                                                |
eb| |---------------------------------|---------------------------------|
Bb| |---------------------------------|---------------------------------|
Gb| |1414141413131313-9-9-9-9-6-6-6-6-|1414141413131313-9-9-9-9-6-6-6-6-|
Db| |-x-x-x-x-x-x-x-x-x-x-x-x-x-x-x-x-|-x-x-x-x-x-x-x-x-x-x-x-x-x-x-x-x-|
Ab| |1212121211111111-7-7-7-7-4-4-4-4-|1212121211111111-7-7-7-7-4-4-4-4-|
Eb| |---------------------------------|---------------------------------|

Guitar 1
eb| |---------------------------------|---------------------------------|
Bb| |---------------------------------|---------------------------------|
Gb| |---------------------------------|-4-4-4-4-4-4-4-4-4-4-4-4-4-4-4-4-|
Db| |-4-4-4-4-4-4-4-4-4-4-4-4-4-4-4-4-|-4-4-4-4-4-4-4-4-4-4-4-4-4-4-4-4-|
Ab| |-4-4-4-4-4-4-4-4-4-4-4-4-4-4-4-4-|-2-2-2-2-2-2-2-2-2-2-2-2-2-2-2-2-|
Eb| |-2-2-2-2-2-2-2-2-2-2-2-2-2-2-2-2-|---------------------------------|
      You're so sensitive               I am, I am a machine            |
                                                                        |
Guitar 2                                                                |
eb| |---------------------------------|---------------------------------|
Bb| |---------------------------------|---------------------------------|
Gb| |1414141413131313-9-9-9-9-6-6-6-6-|16~------9--11~------7~----------|
Db| |-x-x-x-x-x-x-x-x-x-x-x-x-x-x-x-x-|-x-------x---x-------x-----------|
Ab| |1212121211111111-7-7-7-7-4-4-4-4-|14-------7---9-------5-----------|
Eb| |---------------------------------|---------------------------------|

Guitar 1 & 2
eb| |-----0~--------------------------|---------------------------------|
Bb| |-----0~--------------------------|---------------------------------|
Gb| |-----6~--------------------------|---------------------------------|
Db| |-----6~--------------------------|---------------------------------|
Ab| |-----0~--------------------------|---------------------------------|
Eb| |-----0~--------------------------|---------------------------------|


 ______
| Spin |
|______|

Tuning: Half-Step Down
Guitar 1- Distortion
Guitar 2- Distortion

 ___________________
| Intro (0:00-0:20) |
|___________________|


Guitar 1
eb| |-5*------------------------------|---------------------------------|
Bb| |o----------------5*--------------|-----------------7*-------------o|
Gb| |---------------------------------|-5*----------------------7*------|
Db| |---------------------------------|---------------------------------|
Ab| |o--------------------------------|--------------------------------o|
Eb| |---------------------------------|---------------------------------|
   1.
   2.

Guitar 1
eb| |----12-010----------12-010-------|----12-010-----------------------|
Bb| |1012------1210--1012------1210---|1012------1210--101210--10------o|
Gb| |--------------12--------------12-|--------------12------12--1211b--|
Db| |---------------------------------|---------------------------------|
Ab| |o--------------------------------|--------------------------------o|
Eb| |---------------------------------|---------------------------------|
   1.                                                                   |
   2.                                                     That look was |
                                                                        |
Guitar 2                                                                |
eb| |---------------------------------|---------------------------------|
Bb| |o--------------------------------|--------------------------------o|
Gb| |---------------------------------|-----------------5-5-5-5-5-5-5-5-|
Db| |-2-2-2-2-2-2-2-2-4-4-4-4-4-4-4-4-|-5-5-5-5-5-5-5-5-5-5-5-5-5-5-5-5-|
Ab| |o2-2-2-2-2-2-2-2-5-5-5-5-5-5-5-5-|-5-5-5-5-5-5-5-5-3-3-3-3-3-3-3-3o|
Eb| |-0-0-0-0-0-0-0-0-2-2-2-2-2-2-2-2-|-3-3-3-3-3-3-3-3-----------------|

 ___________________
| Verse (0:20-0:40) |
|___________________|

Guitar 1
eb| |---------------------------------|---------------------------------|
Bb| |---------------------------------|---------------------------------|
Gb| |-----------------9~--------------|---------------------------------|
Db| |-2-------2-------9~--------------|-7-------7-------7~--------------|
Ab| |-2-------2-------7~--------------|-7-------7-------7~--------------|
Eb| |-0-------0-----------------------|-5-------5-------5~--------------|
      Priceless       Don't let me get  carried away                    |
                                                                        |
Guitar 2                                                                |
eb| |---------------------------------|---------------------------------|
Bb| |---------------------------------|-------------------------7h8p5p0-|
Gb| |-----------------9~--------------|-----------------9~--------------|
Db| |-----------------x---------------|-----------------x---------------|
Ab| |-----------------7~--------------|-----------------7~--------------|
Eb| |---------------------------------|---------------------------------|

Guitar 1
eb| |---------------------------------|---------------------------------|
Bb| |---------------------------------|---------------------------------|
Gb| |-5-------5-------5~--------------|---------------------------------|
Db| |-5-------5-------5~--------------|-4--(4)--4-------4~--------------|
Ab| |-3-------3-------3~--------------|-5--(5)--5-------5~--------------|
Eb| |---------------------------------|-2--(2)--2-------2~--------------|
      I've been here  before      and it suits you the same you catch on|
                                                                        |
Guitar 2                                                                |
eb| |---------------------------------|---------------------------------|
Bb| |-----------------------------5*--|---------------------------------|
Gb| |-----------------9~------5*------|---------------------------------|
Db| |-----------------x---------------|---------------------------------|
Ab| |-----------------7~--------------|---------------------------------|
Eb| |---------------------------------|---------------------------------|

Guitar 1
eb| |---------------------------------|---------------------------------|
Bb| |---------------------------------|---------------------------------|
Gb| |-----------------9~--------------|---------------------------------|
Db| |-2-------2-------9~--------------|-7-------7-------7~--------------|
Ab| |-2-------2-------7~--------------|-7-------7-------7~--------------|
Eb| |-0-------0-----------------------|-5-------5-------5~--------------|
      Quick             The cynics stop before they give the same review|
        (You catch on quick)                                            |
                                                                        |
Guitar 2                                                                |
eb| |---------------------------------|---------------------------------|
Bb| |---------------------------------|-------------------------7h8p5p0-|
Gb| |-----------------9~--------------|-----------------9~--------------|
Db| |-----------------x---------------|-----------------x---------------|
Ab| |-----------------7~--------------|-----------------7~--------------|
Eb| |---------------------------------|---------------------------------|

Guitar 1
eb| |---------------------------------|---------------------------------|
Bb| |---------------------------------|---------------------------------|
Gb| |-5-------5-------5~--------------|---------------------------------|
Db| |-5-------5-------5~--------------|-4-4-4-4-----4-4-4-4-----4-4-4---|
Ab| |-3-------3-------3~--------------|-5-5-5-5-----5-5-5-5-----5-5-5---|
Eb| |---------------------------------|-2-2-2-2-----2-2-2-2-----2-2-2---|
                                        * * *       * * *       * *     |
      You catch on quick                                   That this is |
        (You catch on quick)                                            |
                                                                        |
Guitar 2                                                                |
eb| |---------------------------------|---------------------------------|
Bb| |-----------------------------5*--|---------------------------------|
Gb| |-----------------9~------5*------|---------------------------------|
Db| |-----------------x---------------|---------------------------------|
Ab| |-----------------7~--------------|---------------------------------|
Eb| |---------------------------------|---------------------------------|

 ________________________
| Pre-Chorus (0:40-0:50) |
|________________________|

Guitar 1
eb| |---------------------------------|---------------------------------|
Bb| |---------------------------------|---------------------------------|
Gb| |---------------------------------|---------------------------------|
Db| |-3-3-3-3-3-3-3-3-3-3-3-3-3-3-3-3-|-2-2-2-2-2-2-2-2-2-2-2-2-2-2-2-2-|
Ab| |-3-3-3-3-3-3-3-3-3-3-3-3-3-3-3-3-|-2-2-2-2-2-2-2-2-2-2-2-2-2-2-2-2-|
Eb| |-1-1-1-1-1-1-1-1-1-1-1-1-1-1-1-1-|-0-0-0-0-0-0-0-0-0-0-0-0-0-0-0-0-|
      Where, where the                  party is                Are you |
                                                                        |
Guitar 2                                                                |
eb| |---------------------------------|---------------------------------|
Bb| |---------------------------------|---------------------------------|
Gb| |12121212121212121212121212121212-|11111111111111111111111111111111-|
Db| |-x-x-x-x-x-x-x-x-x-x-x-x-x-x-x-x-|-x-x-x-x-x-x-x-x-x-x-x-x-x-x-x-x-|
Ab| |10101010101010101010101010101010-|-9-9-9-9-9-9-9-9-9-9-9-9-9-9-9-9-|
Eb| |---------------------------------|---------------------------------|

Guitar 1
eb| |---------------------------------|---------------------------------|
Bb| |---------------------------------|---------------------------------|
Gb| |---------------------------------|---------------------------------|
Db| |-3-3-3-3-3-3-3-3-3-3-3-3-3-3-3-3-|-7-7-7-7-7-7-7-7-8-8-8-8-8-8-8-8-|
Ab| |-3-3-3-3-3-3-3-3-3-3-3-3-3-3-3-3-|-8-8-8-8-8-8-8-8-8-8-8-8-8-8-8-8-|
Eb| |-1-1-1-1-1-1-1-1-1-1-1-1-1-1-1-1-|-5-5-5-5-5-5-5-5-6-6-6-6-6-6-6-6-|
      coming home?                                                  You |
                                       (Are you coming home?)           |
                                                                        |
Guitar 2                                                                |
eb| |---------------------------------|---------------------------------|
Bb| |---------------------------------|---------------------------------|
Gb| |12121212121212121212121212121212-|---------------------------------|
Db| |-x-x-x-x-x-x-x-x-x-x-x-x-x-x-x-x-|---------------------------------|
Ab| |10101010101010101010101010101010-|---------------------------------|
Eb| |---------------------------------|---------------------------------|

 ____________________
| Chorus (0:50-1:13) |
|____________________|

Guitar 1 & 2
eb| |---------------------------------|---------------------------------|
Bb| |o--------------------------------|--------------------------------o|
Gb| |---------------------------------|-----------------5-5-5-5-5-5-5-5-|
Db| |-2-2-2-2-2-2-2-2-4-4-4-4-4-4-4-4-|-5-5-5-5-5-5-5-5-5-5-5-5-5-5-5-5-|
Ab| |o2-2-2-2-2-2-2-2-5-5-5-5-5-5-5-5-|-5-5-5-5-5-5-5-5-3-3-3-3-3-3-3-3o|
Eb| |-0-0-0-0-0-0-0-0-2-2-2-2-2-2-2-2-|-3-3-3-3-3-3-3-3-----------------|
   1. Had your chance
                                       (You had your chance)
   2. Open arms reject assuming hands                                You
                                       (Open arms reject assuming hands)
   3. Had your chance
                                       (You had your chance)

Guitar 1
eb| |---------------------------------|---------------------------------|
Bb| |---------------------------------|---------------------------------|
Gb| |---------------------------------|-5-5-5-5-5-5-5-5-5-5-5-5-5-5-5-5-|
Db| |-2-2-2-2-2-2-2-2-4-4-4-4-4-4-4-4-|-5-5-5-5-5-5-5-5-5-5-5-5-5-5-5-5-|
Ab| |-2-2-2-2-2-2-2-2-5-5-5-5-5-5-5-5-|-3-3-3-3-3-3-3-3-3-3-3-3-3-3-3-3-|
Eb| |-0-0-0-0-0-0-0-0-2-2-2-2-2-2-2-2-|---------------------------------|
      Open arms reject assuming hands                                   |
                                       (Open arms reject assuming hands)|
                                                                        |
Guitar 2                                                                |
eb| |---------------------------------|---------------------------------|
Bb| |---------------------------------|---------------------------------|
Gb| |---------------------------------|12121212121212121111111111111111-|
Db| |---------------------------------|-x-x-x-x-x-x-x-x-x-x-x-x-x-x-x-x-|
Ab| |---------------------------------|1010101010101010-9-9-9-9-9-9-9-9-|
Eb| |---------------------------------|---------------------------------|

Guitar 1
eb| |---------------------------------|
Bb| |---------------------------------|
Gb| |-5-5-5-5-5-5-5-5-5-5-5-5-5-5-5-5-|
Db| |-5-5-5-5-5-5-5-5-5-5-5-5-5-5-5-5-|
Ab| |-3-3-3-3-3-3-3-3-3-3-3-3-3-3-3-3-|
Eb| |---------------------------------|
                                      |
Guitar 2                              |
eb| |---------------------------------|
Bb| |---------------------------------|
Gb| |12121212121212121111111111111111-|
Db| |-x-x-x-x-x-x-x-x-x-x-x-x-x-x-x-x-|
Ab| |1010101010101010-9-9-9-9-9-9-9-9-|
Eb| |---------------------------------|

 ___________________
| Verse (1:13-1:33) |
|___________________|

Guitar 1
eb| |---------------------------------|---------------------------------|
Bb| |---------------------------------|---------------------------------|
Gb| |-----------------9~--------------|---------------------------------|
Db| |-2-------2-------9~--------------|-7-------7-------7~--------------|
Ab| |-2-------2-------7~--------------|-7-------7-------7~--------------|
Eb| |-0-------0-----------------------|-5-------5-------5~--------------|
      The abortion that you had It left you clinically dead, it made it |
                                                                        |
Guitar 2                                                                |
eb| |---------------------------------|---------------------------------|
Bb| |---------------------------------|-------------------------7h8p5p0-|
Gb| |-----------------9~--------------|-----------------9~--------------|
Db| |-----------------x---------------|-----------------x---------------|
Ab| |-----------------7~--------------|-----------------7~--------------|
Eb| |---------------------------------|---------------------------------|

Guitar 1
eb| |---------------------------------|---------------------------------|
Bb| |---------------------------------|---------------------------------|
Gb| |-5-------5-------5~--------------|---------------------------------|
Db| |-5-------5-------5~--------------|-4-------4-------4~--------------|
Ab| |-3-------3-------3~--------------|-5-------5-------5~--------------|
Eb| |---------------------------------|-2-------2-------2~--------------|
      All that much easier to lie but  it's nothing that I'm proud of   |
                                                                        |
Guitar 2                                                                |
eb| |---------------------------------|---------------------------------|
Bb| |-----------------------------5*--|---------------------------------|
Gb| |-----------------9~------5*------|---------------------------------|
Db| |-----------------x---------------|---------------------------------|
Ab| |-----------------7~--------------|---------------------------------|
Eb| |---------------------------------|---------------------------------|

Guitar 1
eb| |---------------------------------|---------------------------------|
Bb| |---------------------------------|---------------------------------|
Gb| |-----------------9~--------------|---------------------------------|
Db| |-2-------2-------9~--------------|-7-------7-------7~--------------|
Ab| |-2-------2-------7~--------------|-7-------7-------7~--------------|
Eb| |-0-------0-----------------------|-5-------5-------5~--------------|
      No, it's nothing that I'm proud of  Making an example out of you  |
                                                                        |
Guitar 2                                                                |
eb| |---------------------------------|---------------------------------|
Bb| |---------------------------------|-------------------------7h8p5p0-|
Gb| |-----------------9~--------------|-----------------9~--------------|
Db| |-----------------x---------------|-----------------x---------------|
Ab| |-----------------7~--------------|-----------------7~--------------|
Eb| |---------------------------------|---------------------------------|

Guitar 1
eb| |---------------------------------|---------------------------------|
Bb| |---------------------------------|---------------------------------|
Gb| |-5-------5-------5~--------------|---------------------------------|
Db| |-5-------5-------5~--------------|-4-4-4-4-----4-4-4-4-----4-4-4---|
Ab| |-3-------3-------3~--------------|-5-5-5-5-----5-5-5-5-----5-5-5---|
Eb| |---------------------------------|-2-2-2-2-----2-2-2-2-----2-2-2---|
                                        * * *       * * *       * *     |
      This is phase one                     This is phase one...        |
                        (This is a preview)                             |
                                                                        |
Guitar 2                                                                |
eb| |---------------------------------|---------------------------------|
Bb| |-----------------------------5*--|-7*------------------------------|
Gb| |-----------------9~------5*------|---------------------------------|
Db| |-----------------x---------------|---------------------------------|
Ab| |-----------------7~--------------|---------------------------------|
Eb| |---------------------------------|---------------------------------|

 ________________________
| Pre-Chorus (1:33-1:43) |
|________________________|

Guitar 1
eb| |---------------------------------|---------------------------------|
Bb| |---------------------------------|---------------------------------|
Gb| |---------------------------------|---------------------------------|
Db| |-3-3-3-3-3-3-3-3-3-3-3-3-3-3-3-3-|-2-2-2-2-2-2-2-2-2-2-2-2-2-2-2-2-|
Ab| |-3-3-3-3-3-3-3-3-3-3-3-3-3-3-3-3-|-2-2-2-2-2-2-2-2-2-2-2-2-2-2-2-2-|
Eb| |-1-1-1-1-1-1-1-1-1-1-1-1-1-1-1-1-|-0-0-0-0-0-0-0-0-0-0-0-0-0-0-0-0-|
      Where, where the                  party is                Are you |
                                                                        |
Guitar 2                                                                |
eb| |---------------------------------|---------------------------------|
Bb| |---------------------------------|---------------------------------|
Gb| |12121212121212121212121212121212-|11111111111111111111111111111111-|
Db| |-x-x-x-x-x-x-x-x-x-x-x-x-x-x-x-x-|-x-x-x-x-x-x-x-x-x-x-x-x-x-x-x-x-|
Ab| |10101010101010101010101010101010-|-9-9-9-9-9-9-9-9-9-9-9-9-9-9-9-9-|
Eb| |---------------------------------|---------------------------------|

Guitar 1
eb| |---------------------------------|---------------------------------|
Bb| |---------------------------------|---------------------------------|
Gb| |---------------------------------|---------------------------------|
Db| |-3-3-3-3-3-3-3-3-3-3-3-3-3-3-3-3-|-7-7-7-7-7-7-7-7-8-8-8-8-8-8-8-8-|
Ab| |-3-3-3-3-3-3-3-3-3-3-3-3-3-3-3-3-|-8-8-8-8-8-8-8-8-8-8-8-8-8-8-8-8-|
Eb| |-1-1-1-1-1-1-1-1-1-1-1-1-1-1-1-1-|-5-5-5-5-5-5-5-5-6-6-6-6-6-6-6-6-|
      coming home?                                                  You |
                                       (Are you coming home?)           |
                                                                        |
Guitar 2                                                                |
eb| |---------------------------------|---------------------------------|
Bb| |---------------------------------|---------------------------------|
Gb| |12121212121212121212121212121212-|---------------------------------|
Db| |-x-x-x-x-x-x-x-x-x-x-x-x-x-x-x-x-|---------------------------------|
Ab| |10101010101010101010101010101010-|---------------------------------|
Eb| |---------------------------------|---------------------------------|

 ____________________
| Chorus (1:43-2:03) |
|____________________|

Guitar 1 & 2
eb| |---------------------------------|---------------------------------|
Bb| |o--------------------------------|--------------------------------o|
Gb| |---------------------------------|-----------------5-5-5-5-5-5-5-5-|
Db| |-2-2-2-2-2-2-2-2-4-4-4-4-4-4-4-4-|-5-5-5-5-5-5-5-5-5-5-5-5-5-5-5-5-|
Ab| |o2-2-2-2-2-2-2-2-5-5-5-5-5-5-5-5-|-5-5-5-5-5-5-5-5-3-3-3-3-3-3-3-3o|
Eb| |-0-0-0-0-0-0-0-0-2-2-2-2-2-2-2-2-|-3-3-3-3-3-3-3-3-----------------|
   1. Had your chance
                                       (You had your chance)
   2. Open arms reject assuming hands                                You
                                       (Open arms reject assuming hands)
   3. Had your chance
                                       (You had your chance)
   4. Open arms reject assuming hands
                                       (Open arms reject assuming hands)

 __________________
| Solo (2:03-2:18) |
|__________________|

Guitar 1
eb| |----12-010-----------------------|----1210--------1210--------1210-|
Bb| |1012------1210--101210--10-------|1012----12101012----12101012-----|
Gb| |--------------12------12--1211b--|---------------------------------|
Db| |---------------------------------|---------------------------------|
Ab| |---------------------------------|---------------------------------|
Eb| |---------------------------------|---------------------------------|
                                                                        |
Guitar 2                                                                |
eb| |---------------------------------|---------------------------------|
Bb| |---------------------------------|---------------------------------|
Gb| |---------------------------------|---------------------------------|
Db| |-3-3-3-3-3-3-3-3-3-3-3-3-3-3-3-3-|-2-2-2-2-2-2-2-2-2-2-2-2-2-2-2-2-|
Ab| |-3-3-3-3-3-3-3-3-3-3-3-3-3-3-3-3-|-2-2-2-2-2-2-2-2-2-2-2-2-2-2-2-2-|
Eb| |-1-1-1-1-1-1-1-1-1-1-1-1-1-1-1-1-|-0-0-0-0-0-0-0-0-0-0-0-0-0-0-0-0-|

Guitar 1
eb| |----12-010-----------------------|----1210--------1210--------1210-|
Bb| |1012------1210--101210--10-------|1012----12101012----12101012-----|
Gb| |--------------12------12--1211b--|---------------------------------|
Db| |---------------------------------|---------------------------------|
Ab| |---------------------------------|---------------------------------|
Eb| |---------------------------------|---------------------------------|
                                                                        |
Guitar 2                                                                |
eb| |---------------------------------|---------------------------------|
Bb| |---------------------------------|---------------------------------|
Gb| |---------------------------------|---------------------------------|
Db| |-3-3-3-3-3-3-3-3-3-3-3-3-3-3-3-3-|-2-x-x-2-x-x-2-x-x-2-x-x-2---2---|
Ab| |-3-3-3-3-3-3-3-3-3-3-3-3-3-3-3-3-|-2-x-x-2-x-x-2-x-x-2-x-x-2---2---|
Eb| |-1-1-1-1-1-1-1-1-1-1-1-1-1-1-1-1-|-0-x-x-0-x-x-0-x-x-0-x-x-0---0---|

Guitar 1
eb| |----1210--------1210--------1210-|12~------------------------------|
Bb| |1012----12101012----12101012-----|---------------------------------|
Gb| |---------------------------------|---------------------------------|
Db| |---------------------------------|---------------------------------|
Ab| |---------------------------------|---------------------------------|
Eb| |---------------------------------|---------------------------------|
                                                                        |
Guitar 2                                                                |
eb| |---------------------------------|---------------------------------|
Bb| |---------------------------------|---------------------------------|
Gb| |---------------------------------|---------------------------------|
Db| |-2-----2-----2-----2-----2-------|---------------------------------|
Ab| |-2-----2-----2-----2-----2-------|---------------------------------|
Eb| |-0-----0-----0-----0-----0-------|---------------------------------|

 ____________________
| Bridge (2:18-2:56) |
|____________________|

Guitar 1
eb| |----------------13b--------------|---------------------------------|
Bb| |---------------------------------|-------------------------7/8\7---|
Gb| |---------------------------------|-------------------------------7-|
Db| |---------------------------------|---------------------------------|
Ab| |---------------------------------|---------------------------------|
Eb| |---------------------------------|---------------------------------|

Guitar 1
eb| |---------------------------------|----5*----(5*)-------------------|
Bb| |----------------12/10------------|-5*---(5*)-----------------------|
Gb| |-7/9-----------------------------|---------------------------------|
Db| |---------------------------------|---------------------------------|
Ab| |---------------------------------|---------------------------------|
Eb| |---------------------------------|---------------------------------|

Guitar 1
eb| |----12*-----(12*)----------------|---------------------------------|
Bb| |12*----(12*)---------------------|---------------------------------|
Gb| |---------------------------------|---------------------------------|
Db| |---------------------------------|-----------------///////////////-|
Ab| |---------------------------------|-----------------\\\\\\\\\\\\\\\-|
Eb| |---------------------------------|---------------------------------|

Guitar 1
eb| |---------------------------------|---------------------------------|
Bb| |o----------0---------------0-----|-----------0-----------0--------o|
Gb| |-------0---------------0---------|-------0-------------------0-----|
Db| |-2---------------4---------------|-5-------------------------------|
Ab| |o--------------------------------|-----------------3--------------o|
Eb| |---------------------------------|---------------------------------|
   1.
   2.

Guitar 1
eb| |---------------------------------|---------------------------------|
Bb| |-----------0---------------0-----|-----------0-----------0---------|
Gb| |-------0---------------0---------|-------0-------------------0-----|
Db| |-2---------------4---------------|-5-------------------------------|
Ab| |---------------------------------|-----------------3---------------|
Eb| |---------------------------------|---------------------------------|
                                                                        |
Guitar 2                                                                |
eb| |12----------------------14-------|15-------------------------------|
Bb| |---------------------------------|------------------------12-------|
Gb| |---------------------------------|---------------------------------|
Db| |---------------------------------|---------------------------------|
Ab| |---------------------------------|---------------------------------|
Eb| |---------------------------------|---------------------------------|
     TP                      TP        TP                      TP

Guitar 1
eb| |---------------------------------|---------------------------------|
Bb| |-----------0---------------0-----|-----------0-----------0---------|
Gb| |-------0---------------0---------|-------0-------------------0-----|
Db| |-2---------------4---------------|-5-------------------------------|
Ab| |---------------------------------|-----------------3---------------|
Eb| |---------------------------------|---------------------------------|
                                                                        |
Guitar 2                                                                |
eb| |---------------------------------|---------------------------------|
Bb| |15------12------15------12-------|15-----15b-----------------------|
Gb| |---------------------------------|---------------------------------|
Db| |---------------------------------|---------------------------------|
Ab| |---------------------------------|---------------------------------|
Eb| |---------------------------------|---------------------------------|
     TP      TP      TP      TP        TP     TP

 ____________________
| Chorus (2:56-3:16) |
|____________________|

Guitar 1 & 2
eb| |---------------------------------|---------------------------------|
Bb| |o--------------------------------|--------------------------------o|
Gb| |---------------------------------|-----------------5-5-5-5-5-5-5-5-|
Db| |-2-2-2-2-2-2-2-2-4-4-4-4-4-4-4-4-|-5-5-5-5-5-5-5-5-5-5-5-5-5-5-5-5-|
Ab| |o2-2-2-2-2-2-2-2-5-5-5-5-5-5-5-5-|-5-5-5-5-5-5-5-5-3-3-3-3-3-3-3-3o|
Eb| |-0-0-0-0-0-0-0-0-2-2-2-2-2-2-2-2-|-3-3-3-3-3-3-3-3-----------------|
   1. Had your chance
                                       (You had your chance)
   2. Open arms reject assuming hands                                You
                                       (Open arms reject assuming hands)
   3. Had your chance
                                       (You had your chance)
   4. Open arms reject assuming hands                                You
                                       (Open arms reject assuming hands)

 ___________________
| Outro (3:16-3:39) |
|___________________|

Guitar 1
eb| |---------------------------------|---------------------------------|
Bb| |---------------------------------|---------------------------------|
Gb| |---------------------------------|-----------------5-5-5-5-5-5-5-5-|
Db| |-2-2-2-2-2-2-2-2-4-4-4-4-4-4-4-4-|-5-5-5-5-5-5-5-5-5-5-5-5-5-5-5-5-|
Ab| |-2-2-2-2-2-2-2-2-5-5-5-5-5-5-5-5-|-5-5-5-5-5-5-5-5-3-3-3-3-3-3-3-3-|
Eb| |-0-0-0-0-0-0-0-0-2-2-2-2-2-2-2-2-|-3-3-3-3-3-3-3-3-----------------|
      Had your chance                                               You |
                                       (You had your chance)            |
                                                                        |
Guitar 2                                                                |
eb| |----12-010----------12-010-------|----1210--------1210--------1210-|
Bb| |1012------1210--1012------1210---|1012----12101012----12101012-----|
Gb| |--------------12--------------12-|---------------------------------|
Db| |---------------------------------|---------------------------------|
Ab| |---------------------------------|---------------------------------|
Eb| |---------------------------------|---------------------------------|

Guitar 1
eb| |---------------------------------|---------------------------------|
Bb| |---------------------------------|---------------------------------|
Gb| |---------------------------------|-----------------5-5-5-5-5-5-5-5-|
Db| |-2-2-2-2-2-2-2-2-4-4-4-4-4-4-4-4-|-5-5-5-5-5-5-5-5-5-5-5-5-5-5-5-5-|
Ab| |-2-2-2-2-2-2-2-2-5-5-5-5-5-5-5-5-|-5-5-5-5-5-5-5-5-3-3-3-3-3-3-3-3-|
Eb| |-0-0-0-0-0-0-0-0-2-2-2-2-2-2-2-2-|-3-3-3-3-3-3-3-3-----------------|
      Had your chance                                                   |
                                       (You had your chance)            |
                                                                        |
Guitar 2                                                                |
eb| |---------------------------------|---------------------------------|
Bb| |---------------------------------|---------------------------------|
Gb| |-9-9-9-9-9-9-9-91111111111111111-|12121212121212121111111111111111-|
Db| |-x-x-x-x-x-x-x-x-x-x-x-x-x-x-x-x-|-x-x-x-x-x-x-x-x-x-x-x-x-x-x-x-x-|
Ab| |-7-7-7-7-7-7-7-7-9-9-9-9-9-9-9-9-|1010101010101010-9-9-9-9-9-9-9-9-|
Eb| |---------------------------------|---------------------------------|

Guitar 1
eb| |---------------------------------|---------------------------------|
Bb| |---------------------------------|---------------------------------|
Gb| |---------------------------------|---------------------------------|
Db| |-2-2-2-2-2-2-2-2-4-4-4-4-4-4-4-4-|-2-x-x-2-x-x-2-------------------|
Ab| |-2-2-2-2-2-2-2-2-5-5-5-5-5-5-5-5-|-2-x-x-2-x-x-2-------------------|
Eb| |-0-0-0-0-0-0-0-0-2-2-2-2-2-2-2-2-|-0-x-x-0-x-x-0-------------------|
                                                                        |
Guitar 2                                                                |
eb| |---------------------------------|---------------------------------|
Bb| |---------------------------------|---------------------------------|
Gb| |-9-9-9-9-9-9-9-91111111111111111-|---------------------------------|
Db| |-x-x-x-x-x-x-x-x-x-x-x-x-x-x-x-x-|-2-x-x-2-x-x-2-------------------|
Ab| |-7-7-7-7-7-7-7-7-9-9-9-9-9-9-9-9-|-2-x-x-2-x-x-2-------------------|
Eb| |---------------------------------|-0-x-x-0-x-x-0-------------------|


 _____________________
| Divine Intervention |
|_____________________|

Tuning: Half-Step Down
Guitar 1- Acoustic
Guitar 2- Clean (tabbed for bells)

 ___________________
| Intro (0:00-0:23) |
|___________________|

Guitar 1
eb| |---------------------------------|---------------------------------|
Bb| |---------------------------------|---------------------------------|
Gb| |---------------------------------|---------------------------------|
Db| |---------------------------------|-----------------------------7-7-|
Ab| |---------------------------------|-----------------------------7-7-|
Eb| |---------------------------------|-----------------------------5-5-|

Guitar 1
eb| |---------------------------------|---------------------------------|
Bb| |o--------------------------------|--------------------------------o|
Gb| |---------------------------------|---------------------------------|
Db| |-7(7-7)7(7-7)7(7)9(9-9)9(9-9)9(9)|-6(6-6)6(6-6)6(6)7(7-7)7(7-7)7-7-|
Ab| |o7(7-7)7(7-7)7(7)9(9-9)9(9-9)9(9)|-7(7-7)7(7-7)7(7)7(7-7)7(7-7)7-7o|
Eb| |-5(5-5)5(5-5)5(5)7(7-7)7(7-7)7(7)|-4(4-4)4(4-4)4(4)5(5-5)5(5-5)5-5-|
  1.
  2.

 ___________________
| Verse (0:23-0:54) |
|___________________|

Guitar 1
eb| |---------------------------------|---------------------------------|
Bb| |---------------------------------|---------------------------------|
Gb| |---------------------------------|---------------------------------|
Db| |-7(7-7)7(7-7)7(7)9(9-9)9(9-9)9(9)|-6(6-6)6(6-6)6(6)7(7-7)7(7-7)7-7-|
Ab| |-7(7-7)7(7-7)7(7)9(9-9)9(9-9)9(9)|-7(7-7)7(7-7)7(7)7(7-7)7(7-7)7-7-|
Eb| |-5(5-5)5(5-5)5(5)7(7-7)7(7-7)7(7)|-4(4-4)4(4-4)4(4)5(5-5)5(5-5)5-5-|
        Despondent      Distracted   Your vicious and romantic

Guitar 1
eb| |---------------------------------|---------------------------------|
Bb| |---------------------------------|---------------------------------|
Gb| |---------------------------------|---------------------------------|
Db| |-7(7-7)7(7-7)7(7)9(9-9)9(9-9)9(9)|-6(6-6)6(6-6)6(6)7(7-7)7(7-7)7-7-|
Ab| |-7(7-7)7(7-7)7(7)9(9-9)9(9-9)9(9)|-7(7-7)7(7-7)7(7)7(7-7)7(7-7)7-7-|
Eb| |-5(5-5)5(5-5)5(5)7(7-7)7(7-7)7(7)|-4(4-4)4(4-4)4(4)5(5-5)5(5-5)5-5-|
      These   are  a  few    of    my   favorite        things

Guitar 1
eb| |---------------------------------|---------------------------------|
Bb| |---------------------------------|---------------------------------|
Gb| |---------------------------------|---------------------------------|
Db| |-7(7-7)7(7-7)7(7)9(9-9)9(9-9)9(9)|-6(6-6)6(6-6)6(6)7(7-7)7(7-7)7-7-|
Ab| |-7(7-7)7(7-7)7(7)9(9-9)9(9-9)9(9)|-7(7-7)7(7-7)7(7)7(7-7)7(7-7)7-7-|
Eb| |-5(5-5)5(5-5)5(5)7(7-7)7(7-7)7(7)|-4(4-4)4(4-4)4(4)5(5-5)5(5-5)5-5-|
      All   of  those flavors   and  this is what you choose  Pass the

Guitar 1
eb| |---------------------------------|---------------------------------|
Bb| |---------------------------------|---------------------------------|
Gb| |---------------------------------|---------------------------------|
Db| |-7(7-7)7(7-7)7(7)9(9-9)9(9-9)9(9)|-6(6-6)6(6-6)6(6)7(7-7)7(7-7)7-7-|
Ab| |-7(7-7)7(7-7)7(7)9(9-9)9(9-9)9(9)|-7(7-7)7(7-7)7(7)7(7-7)7(7-7)7-7-|
Eb| |-5(5-5)5(5-5)5(5)7(7-7)7(7-7)7(7)|-4(4-4)4(4-4)4(4)5(5-5)5(5-5)5-5-|
      Blues    and    on to something   new             Something real

 ____________________
| Chorus (0:54-1:14) |
|____________________|

Guitar 1
eb| |---------------------------------|---------------------------------|
Bb| |---------------------------------|---------------------------------|
Gb| |-7(7-7)7(7-7)7(7)7(7-7)7(7-7)7(7)|---------------------------------|
Db| |-7(7-7)7(7-7)7(7)7(7-7)7(7-7)7(7)|-9(9-9)9(9-9)9(9)9(9-9)9(9-9)9(9)|
Ab| |-5(5-5)5(5-5)5(5)5(5-5)5(5-5)5(5)|-9(9-9)9(9-9)9(9)9(9-9)9(9-9)9(9)|
Eb| |---------------------------------|-7(7-7)7(7-7)7(7)7(7-7)7(7-7)7(7)|
                            And make it timeless              An act of

Guitar 1
eb| |---------------------------------|---------------------------------|
Bb| |---------------------------------|---------------------------------|
Gb| |---------------------------------|---------------------------------|
Db| |-7(7-7)7(7-7)7(7)6(6-6)6(6-6)6(6)|-4(4-4)4(4-4)4(4)4(4-4)4(4-4)4(4)|
Ab| |-7(7-7)7(7-7)7(7)7(7-7)7(7-7)7(7)|-4(4-4)4(4-4)4(4)4(4-4)4(4-4)4(4)|
Eb| |-5(5-5)5(5-5)5(5)4(4-4)4(4-4)4(4)|-2(2-2)2(2-2)2(2)2(2-2)2(2-2)2(2)|
      God and nothing less will be accepted        So if your calling me

Guitar 1
eb| |---------------------------------|
Bb| |---------------------------------|
Gb| |---------------------------------|
Db| |-7---7-----7-6~------------------|
Ab| |-7---7-----7-7~------------------|
Eb| |-0---0-----0-0~------------------|
      Out            Then count me out

 _______________________
| Interlude (1:14-2:01) |
|_______________________|

Guitar 1
eb| |---------------------------------|---------------------------------|
Bb| |---------------------------------|---------------------------------|
Gb| |---------------------------------|---------------------------------|
Db| |-7(7-7)7(7-7)7(7)9(9-9)9(9-9)9(9)|-6(6-6)6(6-6)6(6)7(7-7)7(7-7)7-7-|
Ab| |-7(7-7)7(7-7)7(7)9(9-9)9(9-9)9(9)|-7(7-7)7(7-7)7(7)7(7-7)7(7-7)7-7-|
Eb| |-5(5-5)5(5-5)5(5)7(7-7)7(7-7)7(7)|-4(4-4)4(4-4)4(4)5(5-5)5(5-5)5-5-|
                                                                        |
Guitar 2                                                                |
eb| |------16--17---------------------|----161719-----------------------|
Bb| |----------------------14--17-----|----------------15----14---------|
Gb| |---------------------------------|---------------------------------|
Db| |---------------------------------|---------------------------------|
Ab| |---------------------------------|---------------------------------|
Eb| |---------------------------------|---------------------------------|

Guitar 1
eb| |---------------------------------|---------------------------------|
Bb| |---------------------------------|---------------------------------|
Gb| |---------------------------------|---------------------------------|
Db| |-7(7-7)7(7-7)7(7)9(9-9)9(9-9)9(9)|-6(6-6)6(6-6)6(6)7(7-7)7(7-7)7-7-|
Ab| |-7(7-7)7(7-7)7(7)9(9-9)9(9-9)9(9)|-7(7-7)7(7-7)7(7)7(7-7)7(7-7)7-7-|
Eb| |-5(5-5)5(5-5)5(5)7(7-7)7(7-7)7(7)|-4(4-4)4(4-4)4(4)5(5-5)5(5-5)5-5-|
                                                               Ya we're |
Guitar 2                                                                |
eb| |------16--17---------------------|----161719-----------------------|
Bb| |----------------------14--17-----|----------------15----14---------|
Gb| |---------------------------------|---------------------------------|
Db| |---------------------------------|---------------------------------|
Ab| |---------------------------------|---------------------------------|
Eb| |---------------------------------|---------------------------------|

 ___________________
| Verse (2:01-2:19) |
|___________________|

Guitar 1
eb| |---------------------------------|---------------------------------|
Bb| |---------------------------------|---------------------------------|
Gb| |---------------------------------|---------------------------------|
Db| |-7(7-7)7(7-7)7(7)9(9-9)9(9-9)9(9)|-6(6-6)6(6-6)6(6)7(7-7)7(7-7)7-7-|
Ab| |-7(7-7)7(7-7)7(7)9(9-9)9(9-9)9(9)|-7(7-7)7(7-7)7(7)7(7-7)7(7-7)7-7-|
Eb| |-5(5-5)5(5-5)5(5)7(7-7)7(7-7)7(7)|-4(4-4)4(4-4)4(4)5(5-5)5(5-5)5-5-|
      Stubborn and melodramatic a real class act                  Ya see

Guitar 1
eb| |---------------------------------|---------------------------------|
Bb| |---------------------------------|---------------------------------|
Gb| |-7(7-7)7(7-7)7(7)7(7-7)7(7-7)7(7)|---------------------------------|
Db| |-7(7-7)7(7-7)7(7)7(7-7)7(7-7)7(7)|-6(6-6)6(6-6)6(6)7(7-7)7\--------|
Ab| |-5(5-5)5(5-5)5(5)5(7-7)7(7-7)7(7)|-7(7-7)7(7-7)7(7)7(7-7)7\--------|
Eb| |---------------------------------|-4(4-4)4(4-4)4(4)5(5-5)5\--------|
      I  know  a few  of   your         favorite        things

Guitar 1
eb| |---------------------------------|---------------------------------|
Bb| |---------------------------------|---------------------------------|
Gb| |---------------------------------|---------------------------------|
Db| |-7(7-7)7(7-7)7(7)9(9-9)9(9-9)9(9)|-6(6-6)6(6-6)6(6)7(7-7)7(7-7)7-7-|
Ab| |-7(7-7)7(7-7)7(7)9(9-9)9(9-9)9(9)|-7(7-7)7(7-7)7(7)7(7-7)7(7-7)7-7-|
Eb| |-5(5-5)5(5-5)5(5)7(7-7)7(7-7)7(7)|-4(4-4)4(4-4)4(4)5(5-5)5(5-5)5-5-|
      Five   in  the  morning      It   all comes out   pouring like    |
                                                                        |
Guitar 2                                                                |
eb| |17~------------------------------|---------------------------------|
Bb| |---------------------------------|---------------------------------|
Gb| |---------------------------------|---------------------------------|
Db| |---------------------------------|---------------------------------|
Ab| |---------------------------------|---------------------------------|
Eb| |---------------------------------|---------------------------------|

Guitar 1
eb| |---------------------------------|---------------------------------|
Bb| |---------------------------------|---------------------------------|
Gb| |---------------------------------|---------------------------------|
Db| |-7(7-7)7(7-7)7(7)9(9-9)9(9-9)9(9)|-6(6-6)6(6-6)6(6)7(7-7)7(7-7)7-7-|
Ab| |-7(7-7)7(7-7)7(7)9(9-9)9(9-9)9(9)|-7(7-7)7(7-7)7(7)7(7-7)7(7-7)7-7-|
Eb| |-5(5-5)5(5-5)5(5)7(7-7)7(7-7)7(7)|-4(4-4)4(4-4)4(4)5(5-5)5(5-5)5-5-|
      Out        the  same       way    in               Something real

 ____________________
| Chorus (2:19-2:21) |
|____________________|

Guitar 1
eb| |---------------------------------|---------------------------------|
Bb| |---------------------------------|---------------------------------|
Gb| |-7(7-7)7(7-7)7(7)7(7-7)7(7-7)7(7)|---------------------------------|
Db| |-7(7-7)7(7-7)7(7)7(7-7)7(7-7)7(7)|-9(9-9)9(9-9)9(9)9(9-9)9(9-9)9(9)|
Ab| |-5(5-5)5(5-5)5(5)5(5-5)5(5-5)5(5)|-9(9-9)9(9-9)9(9)9(9-9)9(9-9)9(9)|
Eb| |---------------------------------|-7(7-7)7(7-7)7(7)7(7-7)7(7-7)7(7)|
                            And make it timeless              An act of

Guitar 1
eb| |---------------------------------|---------------------------------|
Bb| |---------------------------------|---------------------------------|
Gb| |---------------------------------|---------------------------------|
Db| |-7(7-7)7(7-7)7(7)6(6-6)6(6-6)6(6)|-4(4-4)4(4-4)4(4)4(4-4)4(4-4)4(4)|
Ab| |-7(7-7)7(7-7)7(7)7(7-7)7(7-7)7(7)|-4(4-4)4(4-4)4(4)4(4-4)4(4-4)4(4)|
Eb| |-5(5-5)5(5-5)5(5)4(4-4)4(4-4)4(4)|-2(2-2)2(2-2)2(2)2(2-2)2(2-2)2(2)|
      God and nothing less will be accepted        So if your calling me

Guitar 1
eb| |---------------------------------|
Bb| |---------------------------------|
Gb| |---------------------------------|
Db| |-7---7-----7-6~------------------|
Ab| |-7---7-----7-7~------------------|
Eb| |-0---0-----0-0~------------------|
      Out            Then count me out

 _______________________
| Interlude (2:21-2:28) |
|_______________________|

Guitar 1
eb| |---------------------------------|---------------------------------|
Bb| |---------------------------------|---------------------------------|
Gb| |---------------------------------|---------------------------------|
Db| |-7(7-7)7(7-7)7(7)9(9-9)9(9-9)9(9)|-6(6-6)6(6-6)6(6)7(7-7)7(7-7)7-7-|
Ab| |-7(7-7)7(7-7)7(7)9(9-9)9(9-9)9(9)|-7(7-7)7(7-7)7(7)7(7-7)7(7-7)7-7-|
Eb| |-5(5-5)5(5-5)5(5)7(7-7)7(7-7)7(7)|-4(4-4)4(4-4)4(4)5(5-5)5(5-5)5-5-|
                                                                        |
Guitar 2                                                                |
eb| |------16--17---------------------|----161719-----------------------|
Bb| |----------------------14--17-----|----------------15----14---------|
Gb| |---------------------------------|---------------------------------|
Db| |---------------------------------|---------------------------------|
Ab| |---------------------------------|---------------------------------|
Eb| |---------------------------------|---------------------------------|

 ____________________
| Bridge (2:28-2:51) |
|____________________|

Guitar 1
eb| |---------------------------------|---------------------------------|
Bb| |---------------------------------|---------------------------------|
Gb| |---------------------------------|---------------------------------|
Db| |-7(7-7)7(7-7)7(7)9(9-9)9(9-9)9(9)|-6(6-6)6(6-6)6(6)7(7-7)7(7-7)7-7-|
Ab| |-7(7-7)7(7-7)7(7)9(9-9)9(9-9)9(9)|-7(7-7)7(7-7)7(7)7(7-7)7(7-7)7-7-|
Eb| |-5(5-5)5(5-5)5(5)7(7-7)7(7-7)7(7)|-4(4-4)4(4-4)4(4)5(5-5)5(5-5)5-5-|
                                                                        |
Guitar 2                                                                |
eb| |------16--17---------------------|----161719-----------------------|
Bb| |----------------------14--17-----|----------------15----14---------|
Gb| |---------------------------------|---------------------------------|
Db| |---------------------------------|---------------------------------|
Ab| |---------------------------------|---------------------------------|
Eb| |---------------------------------|---------------------------------|

Guitar 1
eb| |---------------------------------|---------------------------------|
Bb| |---------------------------------|---------------------------------|
Gb| |---------------------------------|---------------------------------|
Db| |-7(7-7)7(7-7)7(7)9(9-9)9(9-9)9(9)|-6(6-6)6(6-6)6(6)7(7-7)7(7-7)7-7-|
Ab| |-7(7-7)7(7-7)7(7)9(9-9)9(9-9)9(9)|-7(7-7)7(7-7)7(7)7(7-7)7(7-7)7-7-|
Eb| |-5(5-5)5(5-5)5(5)7(7-7)7(7-7)7(7)|-4(4-4)4(4-4)4(4)5(5-5)5(5-5)5-5-|
                                                                        |
Guitar 2                                                                |
eb| |------16--17---------------------|----161719-----------------------|
Bb| |----------------------14--17-----|----------------15----14---------|
Gb| |---------------------------------|---------------------------------|
Db| |---------------------------------|---------------------------------|
Ab| |---------------------------------|---------------------------------|
Eb| |---------------------------------|---------------------------------|

Guitar 1
eb| |---------------------------------|---------------------------------|
Bb| |---------------------------------|---------------------------------|
Gb| |---------------------------------|---------------------------------|
Db| |-7(7-7)7(7-7)7(7)9(9-9)9(9-9)9(9)|-6(6-6)6(6-6)6(6)7(7-7)7---------|
Ab| |-7(7-7)7(7-7)7(7)9(9-9)9(9-9)9(9)|-7(7-7)7(7-7)7(7)7(7-7)7---------|
Eb| |-5(5-5)5(5-5)5(5)7(7-7)7(7-7)7(7)|-4(4-4)4(4-4)4(4)5(5-5)5---------|
                                                        Something real  |
                                                                        |
Guitar 2                                                                |
eb| |------16--17---------------------|----161719-----------------------|
Bb| |----------------------14--17-----|----------------15---------------|
Gb| |---------------------------------|---------------------------------|
Db| |---------------------------------|---------------------------------|
Ab| |---------------------------------|---------------------------------|
Eb| |---------------------------------|---------------------------------|

 ____________________
| Chorus (2:52-3:29) |
|____________________|

Guitar 1
eb| |---------------------------------|---------------------------------|
Bb| |---------------------------------|---------------------------------|
Gb| |-7(7-7)7(7-7)7(7)7(7-7)7(7-7)7(7)|---------------------------------|
Db| |-7(7-7)7(7-7)7(7)7(7-7)7(7-7)7(7)|-9(9-9)9(9-9)9(9)9(9-9)9(9-9)9(9)|
Ab| |-5(5-5)5(5-5)5(5)5(5-5)5(5-5)5(5)|-9(9-9)9(9-9)9(9)9(9-9)9(9-9)9(9)|
Eb| |---------------------------------|-7(7-7)7(7-7)7(7)7(7-7)7(7-7)7(7)|
                            And make it timeless              An act of

Guitar 1
eb| |---------------------------------|---------------------------------|
Bb| |---------------------------------|---------------------------------|
Gb| |---------------------------------|---------------------------------|
Db| |-7(7-7)7(7-7)7(7)6(6-6)6(6-6)6(6)|-4(4-4)4(4-4)4(4)4(4-4)4(4-4)4(4)|
Ab| |-7(7-7)7(7-7)7(7)7(7-7)7(7-7)7(7)|-4(4-4)4(4-4)4(4)4(4-4)4(4-4)4(4)|
Eb| |-5(5-5)5(5-5)5(5)4(4-4)4(4-4)4(4)|-2(2-2)2(2-2)2(2)2(2-2)2(2-2)2(2)|
      God and nothing less will be accepted                      I said

Guitar 1
eb| |---------------------------------|---------------------------------|
Bb| |---------------------------------|---------------------------------|
Gb| |-7(7-7)7(7-7)7(7)7(7-7)7(7-7)7(7)|---------------------------------|
Db| |-7(7-7)7(7-7)7(7)7(7-7)7(7-7)7(7)|-9(9-9)9(9-9)9(9)9(9-9)9(9-9)9(9)|
Ab| |-5(5-5)5(5-5)5(5)5(5-5)5(5-5)5(5)|-9(9-9)9(9-9)9(9)9(9-9)9(9-9)9(9)|
Eb| |---------------------------------|-7(7-7)7(7-7)7(7)7(7-7)7(7-7)7(7)|
      Real                  And make it timeless              An act of

Guitar 1
eb| |---------------------------------|---------------------------------|
Bb| |---------------------------------|---------------------------------|
Gb| |---------------------------------|---------------------------------|
Db| |-7(7-7)7(7-7)7(7)6(6-6)6(6-6)6(6)|-4(4-4)4(4-4)4(4)4(4-4)4(4-4)4(4)|
Ab| |-7(7-7)7(7-7)7(7)7(7-7)7(7-7)7(7)|-4(4-4)4(4-4)4(4)4(4-4)4(4-4)4(4)|
Eb| |-5(5-5)5(5-5)5(5)4(4-4)4(4-4)4(4)|-2(2-2)2(2-2)2(2)2(2-2)2(2-2)2(2)|
      God and nothing less will be accepted        So if your calling me

Guitar 1
eb| |---------------------------------|
Bb| |---------------------------------|
Gb| |---------------------------------|
Db| |-7---7-----7-6~------------------|
Ab| |-7---7-----7-7~------------------|
Eb| |-0---0-----0-0~------------------|
      Out                Then count me

 ___________________
| Outro (3:30-4:14) |
|___________________|

Guitar 1
eb| |---------------------------------|---------------------------------|
Bb| |---------------------------------|---------------------------------|
Gb| |---------------------------------|---------------------------------|
Db| |-7(7-7)7(7-7)7(7)9(9-9)9(9-9)9(9)|-6(6-6)6(6-6)6(6)7(7-7)7(7-7)7-7-|
Ab| |-7(7-7)7(7-7)7(7)9(9-9)9(9-9)9(9)|-7(7-7)7(7-7)7(7)7(7-7)7(7-7)7-7-|
Eb| |-5(5-5)5(5-5)5(5)7(7-7)7(7-7)7(7)|-4(4-4)4(4-4)4(4)5(5-5)5(5-5)5-5-|
      Out

Guitar 1
eb| |---------------------------------|---------------------------------|
Bb| |---------------------------------|---------------------------------|
Gb| |---------------------------------|---------------------------------|
Db| |-7(7-7)7(7-7)7(7)9(9-9)9(9-9)9(9)|-6(6-6)6(6-6)6(6)7(7-7)7(7-7)7-7-|
Ab| |-7(7-7)7(7-7)7(7)9(9-9)9(9-9)9(9)|-7(7-7)7(7-7)7(7)7(7-7)7(7-7)7-7-|
Eb| |-5(5-5)5(5-5)5(5)7(7-7)7(7-7)7(7)|-4(4-4)4(4-4)4(4)5(5-5)5(5-5)5-5-|

Guitar 1
eb| |---------------------------------|---------------------------------|
Bb| |---------------------------------|---------------------------------|
Gb| |---------------------------------|---------------------------------|
Db| |-7(7-7)7(7-7)7(7)9(9-9)9(9-9)9(9)|-7~------------------------------|
Ab| |-7(7-7)7(7-7)7(7)9(9-9)9(9-9)9(9)|-7~------------------------------|
Eb| |-5(5-5)5(5-5)5(5)7(7-7)7(7-7)7(7)|-5~------------------------------|


 _______
| Miami |
|_______|

Tuning: Half-Step Down
Guitar 1- Distortion
Guitar 2- Distortion

 ___________________
| Intro (0:00-0:05) |
|___________________|

Guitar 1
eb| |---x---x---x---x---x---x---x---x-|---x---x---x---x---x---x---x--1--|
Bb| |-x-x-x-x-x-x-x-x-x-x-x-x-x-x-x-x-|-x-x-x-x-x-x-x-x-x-x-x-x-x-x--0--|
Gb| |-x-x-x-x-x-x-x-x-x-x-x-x-x-x-x-x-|-x-x-x-x-x-x-x-x-x-x-x-x-x-x--0--|
Db| |-x-x-x-x-x-x-x-x-x-x-x-x-x-x-x-x-|-x-x-x-x-x-x-x-x-x-x-x-x-x-x-----|
Ab| |-x-x-x-x-x-x-x-x-x-x-x-x-x-x-x-x-|-x-x-x-x-x-x-x-x-x-x-x-x-x-x-----|
Eb| |-x---x---x---x---x---x---x---x---|-x---x---x---x---x---x---x-------|

 ___________________
| Verse (0:06-0:30) |
|___________________|

Guitar 1
eb| |---------------------------------|---------------------------------|
Bb| |---------------------------------|---------------------------------|
Gb| |101010101010101010101010-8-8-8-8-|-5-5-5-5-5-5-5-5-6-6-6-6-6-6-6-8-|
Db| |-8-8-8-8-8-8-8-8-8-8-8-8-6-6-6-6-|-3-3-3-3-3-3-3-3-4-4-4-4-4-4-4-6-|
Ab| |---------------------------------|---------------------------------|
Eb| |---------------------------------|---------------------------------|
      * * * * * * * * * * * * * * * *   * * * * * * * * * * * * * * * *
                              The whole truth

Guitar 1
eb| |---------------------------------|---------------------------------|
Bb| |---------------------------------|---------------------------------|
Gb| |-6-6-6-6-6-6-6-6-6-6-6-6-6-6-6-6-|10101010101010101010101010101010-|
Db| |-4-4-4-4-4-4-4-4-4-4-4-4-4-4-4-4-|-8-8-8-8-8-8-8-8-8-8-8-8-8-8-8-8-|
Ab| |---------------------------------|---------------------------------|
Eb| |---------------------------------|---------------------------------|
      * * * * * * * * * * * * * * * *   * * * * * * * * * * * * * * * *
      and nothing but the truth         Stop me if you've heard this one before

Guitar 1
eb| |---------------------------------|---------------------------------|
Bb| |---------------------------------|---------------------------------|
Gb| |101010101010101010101010-8-8-8-8-|-5-5-5-5-5-5-5-5-6-6-6-6-6-6-6-8-|
Db| |-8-8-8-8-8-8-8-8-8-8-8-8-6-6-6-6-|-3-3-3-3-3-3-3-3-4-4-4-4-4-4-4-6-|
Ab| |---------------------------------|---------------------------------|
Eb| |---------------------------------|---------------------------------|
      * * * * * * * * * * * * * * * *   * * * * * * * * * * * * * * * *
                              The whole truth
                             (The whole truth)

Guitar 1
eb| |---------------------------------|---------------------------------|
Bb| |---------------------------------|---------------------------------|
Gb| |-6-6-6-6-6-6-6-6-6-6-6-6-6-6-6-6-|10101010101010101010101010101010-|
Db| |-4-4-4-4-4-4-4-4-4-4-4-4-4-4-4-4-|-8-8-8-8-8-8-8-8-8-8-8-8-8-8-8-8-|
Ab| |---------------------------------|---------------------------------|
Eb| |---------------------------------|---------------------------------|
      * * * * * * * * * * * * * * * *   * * * * * * * * * * *
      is nothing but a good excuse

 ________________________
| Pre-Chorus (0:31-0:42) |
|________________________|

Guitar 1
eb| |---------------------------------|---------------------------------|
Bb| |---------------------------------|---------------------------------|
Gb| |101010101010101010101010-8-8-8-8-|-5-5-5-5-5-5-5-5-6-6-6-6-6-6-6-8-|
Db| |-8-8-8-8-8-8-8-8-8-8-8-8-6-6-6-6-|-3-3-3-3-3-3-3-3-4-4-4-4-4-4-4-6-|
Ab| |---------------------------------|---------------------------------|
Eb| |---------------------------------|---------------------------------|
      * * * * * * * * * * * * * * * *   * * * * * * * * * * * * * * * * |
      So long as you don't torture me with my past, lets be honest      |
                                                                        |
Guitar 2                                                                |
eb| |---------------------------------|---------------------------------|
Bb| |11--11--11--11--11--11---9---9---|-6---6---6---6---7---7---7---7---|
Gb| |10--10--10--10--10--10---8---8---|-5---5---5---5---6---6---6---6---|
Db| |---------------------------------|---------------------------------|
Ab| |---------------------------------|---------------------------------|
Eb| |---------------------------------|---------------------------------|

Guitar 1
eb| |---------------------------------|---------------------------------|
Bb| |---------------------------------|---------------------------------|
Gb| |-6-6-6-6-6-6-6-6-6-6-6-6-6-6-6-6-|1010101010101010-8-8-8-----------|
Db| |-4-4-4-4-4-4-4-4-4-4-4-4-4-4-4-4-|-8-8-8-8-8-8-8-8-6-6-6-----------|
Ab| |---------------------------------|---------------------------------|
Eb| |---------------------------------|---------------------------------|
      * * * * * * * * * * * * * * * *   * * * * * * * *                 |
      Is the secret silent? Is the secret safe...                       |
                                                                        |
Guitar 2                                                                |
eb| |---------------------------------|---------------------------------|
Bb| |-6---6---6---6---7---7---7---7---|11--11--11--11---9-9-9-----------|
Gb| |-5---5---5---5---6---6---6---6---|10--10--10--10---8-8-8-----------|
Db| |---------------------------------|---------------------------------|
Ab| |---------------------------------|---------------------------------|
Eb| |---------------------------------|---------------------------------|

 ____________________
| Chorus (0:42-1:08) |
|____________________|

Guitar 1 & 2
eb| |---------------------------------|---------------------------------|
Bb| |---------------------------------|---------------------------------|
Gb| |-3-3-3-3-3-3-3-3-3-3-3-3-3-3-3-3-|-5-5-5-5-6-6-6-6-6-6-6-6/8\6/8\8-|
Db| |-x-x-x-x-x-x-x-x-x-x-x-x-x-x-x-x-|-x-x-x-x-x-x-x-x-x-x-x-x-x-x-x-x-|
Ab| |-1-1-1-1-1-1-1-1-1-1-1-1-1-1-1-1-|-3-3-3-3-4-4-4-4-4-4-4-4/6\4/6\6-|
Eb| |---------------------------------|---------------------------------|
      Miami...           Miami...           Miami...               Well

Guitar 1 & 2
eb| |---------------------------------|---------------------------------|
Bb| |---------------------------------|---------------------------------|
Gb| |10101010101010101010101010101010-|-5-5-5-5-3-3-3-3-3-3-3-3---------|
Db| |-x-x-x-x-x-x-x-x-x-x-x-x-x-x-x-x-|-x-x-x-x-x-x-x-x-x-x-x-x---------|
Ab| |-8-8-8-8-8-8-8-8-8-8-8-8-8-8-8-8-|-3-3-3-3-1-1-1-1-1-1-1-1---------|
Eb| |---------------------------------|---------------------------------|
      every hour on the hour,
                              (every hour on the hour)

Guitar 1 & 2
eb| |---------------------------------|---------------------------------|
Bb| |---------------------------------|---------------------------------|
Gb| |-3-3-3-3-3-3-3-3-3-3-3-3-3-3-3-3-|-5-5-5-5-6-6-6-6-6-6-6-6/8\6/8\8-|
Db| |-x-x-x-x-x-x-x-x-x-x-x-x-x-x-x-x-|-x-x-x-x-x-x-x-x-x-x-x-x-x-x-x-x-|
Ab| |-1-1-1-1-1-1-1-1-1-1-1-1-1-1-1-1-|-3-3-3-3-4-4-4-4-4-4-4-4/6\4/6\6-|
Eb| |---------------------------------|---------------------------------|
      You have to, you just have to trust me...

Guitar 1 & 2
eb| |---------------------------------|-------------------------------1-|
Bb| |---------------------------------|-------------------------------1-|
Gb| |10101010101010101010101010101010-|-5-5-5-5-3-3-3-3-3-3-3-3-3-3-3-0-|
Db| |-x-x-x-x-x-x-x-x-x-x-x-x-x-x-x-x-|-x-x-x-x-x-x-x-x-x-x-x-x-x-x-x---|
Ab| |-8-8-8-8-8-8-8-8-8-8-8-8-8-8-8-8-|-3-3-3-3-1-1-1-1-1-1-1-1-1-1-1---|
Eb| |---------------------------------|---------------------------------|
      Whoever I was then, I can't ever be again

 ___________________
| Verse (1:08-1:21) |
|___________________|

Guitar 1
eb| |---------------------------------|---------------------------------|
Bb| |---------------------------------|---------------------------------|
Gb| |101010101010101010101010-8-8-8-8-|-5-5-5-5-5-5-5-5-6-6-6-6-6-6-6-8-|
Db| |-8-8-8-8-8-8-8-8-8-8-8-8-6-6-6-6-|-3-3-3-3-3-3-3-3-4-4-4-4-4-4-4-6-|
Ab| |---------------------------------|---------------------------------|
Eb| |---------------------------------|---------------------------------|
      * * * * * * * * * * * * * * * *   * * * * * * * * * * * * * * * * |
      Reminders...                                                      |
                                                                        |
Guitar 2                                                                |
eb| |---------------------------------|---------------------------------|
Bb| |11--11----------11--11---9---9---|-6---6-----------7---7-----------|
Gb| |10--10----------10--10---8---8---|-5---5-----------6---6-----------|
Db| |---------------------------------|---------------------------------|
Ab| |---------------------------------|---------------------------------|
Eb| |---------------------------------|---------------------------------|

Guitar 1
eb| |---------------------------------|---------------------------------|
Bb| |---------------------------------|---------------------------------|
Gb| |-6-6-6-6-6-6-6-6-6-6-6-6-6-6-6-6-|1010101010101010-5-5-5-5-5-------|
Db| |-4-4-4-4-4-4-4-4-4-4-4-4-4-4-4-4-|-8-8-8-8-8-8-8-8-3-3-3-3-3-------|
Ab| |---------------------------------|---------------------------------|
Eb| |---------------------------------|---------------------------------|
      * * * * * * * * * * * * * * * *   * * * * * * * *                 |
      They are not reluctant  So stop me if you've heard this one before|
                                                                        |
Guitar 2                                                                |
eb| |---------------------------------|---------------------------------|
Bb| |-6---6-----------7---7---6---6---|11--11-----------9---9-------x-x-|
Gb| |-5---5-----------6---6---5---5---|10--10-----------8---8-------x-x-|
Db| |---------------------------------|---------------------------------|
Ab| |---------------------------------|---------------------------------|
Eb| |---------------------------------|---------------------------------|

 ________________________
| Pre-Chorus (1:21-1:32) |
|________________________|

Guitar 1
eb| |---------------------------------|---------------------------------|
Bb| |---------------------------------|---------------------------------|
Gb| |101010101010101010101010-8-8-8-8-|-5-5-5-5-5-5-5-5-6-6-6-6-6-6-6-8-|
Db| |-8-8-8-8-8-8-8-8-8-8-8-8-6-6-6-6-|-3-3-3-3-3-3-3-3-4-4-4-4-4-4-4-6-|
Ab| |---------------------------------|---------------------------------|
Eb| |---------------------------------|---------------------------------|
      * * * * * * * * * * * * * * * *   * * * * * * * * * * * * * * * * |
      Sideways blinders...              I can't find a way              |
                                                                        |
Guitar 2                                                                |
eb| |---------------------------------|---------------------------------|
Bb| |11--11--11--11--11--11---9---9---|-6---6---6---6---7---7---7---7---|
Gb| |10--10--10--10--10--10---8---8---|-5---5---5---5---6---6---6---6---|
Db| |---------------------------------|---------------------------------|
Ab| |---------------------------------|---------------------------------|
Eb| |---------------------------------|---------------------------------|

Guitar 1
eb| |---------------------------------|---------------------------------|
Bb| |---------------------------------|---------------------------------|
Gb| |-6-6-6-6-6-6-6-6-6-6-6-6-6-6-6-6-|1010101010101010-8-8-8-----------|
Db| |-4-4-4-4-4-4-4-4-4-4-4-4-4-4-4-4-|-8-8-8-8-8-8-8-8-6-6-6-----------|
Ab| |---------------------------------|---------------------------------|
Eb| |---------------------------------|---------------------------------|
      * * * * * * * * * * * * * * * *   * * * * * * * *                 |
      around...       A way around...                                   |
                                                                        |
Guitar 2                                                                |
eb| |---------------------------------|---------------------------------|
Bb| |-6---6---6---6---7---7---7---7---|11--11--11--11---9-9-9-----------|
Gb| |-5---5---5---5---6---6---6---6---|10--10--10--10---8-8-8-----------|
Db| |---------------------------------|---------------------------------|
Ab| |---------------------------------|---------------------------------|
Eb| |---------------------------------|---------------------------------|

 ____________________
| Chorus (1:32-1:57) |
|____________________|

Guitar 1 & 2
eb| |---------------------------------|---------------------------------|
Bb| |---------------------------------|---------------------------------|
Gb| |-3-3-3-3-3-3-3-3-3-3-3-3-3-3-3-3-|-5-5-5-5-6-6-6-6-6-6-6-6/8\6/8\8-|
Db| |-x-x-x-x-x-x-x-x-x-x-x-x-x-x-x-x-|-x-x-x-x-x-x-x-x-x-x-x-x-x-x-x-x-|
Ab| |-1-1-1-1-1-1-1-1-1-1-1-1-1-1-1-1-|-3-3-3-3-4-4-4-4-4-4-4-4/6\4/6\6-|
Eb| |---------------------------------|---------------------------------|
      Miami...           Miami...           Miami...               Well

Guitar 1 & 2
eb| |---------------------------------|---------------------------------|
Bb| |---------------------------------|---------------------------------|
Gb| |10101010101010101010101010101010-|-5-5-5-5-3-3-3-3-3-3-3-3---------|
Db| |-x-x-x-x-x-x-x-x-x-x-x-x-x-x-x-x-|-x-x-x-x-x-x-x-x-x-x-x-x---------|
Ab| |-8-8-8-8-8-8-8-8-8-8-8-8-8-8-8-8-|-3-3-3-3-1-1-1-1-1-1-1-1---------|
Eb| |---------------------------------|---------------------------------|
      every hour on the hour,
                              (every hour on the hour)

Guitar 1 & 2
eb| |---------------------------------|---------------------------------|
Bb| |---------------------------------|---------------------------------|
Gb| |-3-3-3-3-3-3-3-3-3-3-3-3-3-3-3-3-|-5-5-5-5-6-6-6-6-6-6-6-6/8\6/8\8-|
Db| |-x-x-x-x-x-x-x-x-x-x-x-x-x-x-x-x-|-x-x-x-x-x-x-x-x-x-x-x-x-x-x-x-x-|
Ab| |-1-1-1-1-1-1-1-1-1-1-1-1-1-1-1-1-|-3-3-3-3-4-4-4-4-4-4-4-4/6\4/6\6-|
Eb| |---------------------------------|---------------------------------|
      You have to, you just have to trust me...

Guitar 1 & 2
eb| |---------------------------------|---------------------------------|
Bb| |---------------------------------|---------------------------------|
Gb| |10101010101010101010101010101010-|-5-5-5-5-3-3-3-3-3-3-3-3-3-3-3-3-|
Db| |-x-x-x-x-x-x-x-x-x-x-x-x-x-x-x-x-|-x-x-x-x-x-x-x-x-x-x-x-x-x-x-x-x-|
Ab| |-8-8-8-8-8-8-8-8-8-8-8-8-8-8-8-8-|-3-3-3-3-1-1-1-1-1-1-1-1-1-1-1-1-|
Eb| |---------------------------------|---------------------------------|
      Whoever I was then, I can't ever be again

 __________________
| Solo (1:58-2:22) |
|__________________|

Guitar 1
eb| |---------------------------------|---------------------------------|
Bb| |---------------------------------|---------------------------------|
Gb| |---------------------------------|---------------------------------|
Db| |151311------151311------151311---|151311------151311------151311---|
Ab| |------151311------151311---------|------151311------151311---------|
Eb| |---------------------------------|---------------------------------|
                                                                        |
Guitar 2                                                                |
eb| |---------------------------------|---------------------------------|
Bb| |---------------------------------|---------------------------------|
Gb| |-3-------------------------------|---------------------------------|
Db| |-3-x28---------------------------|---------------------------------|
Ab| |-1-------------------------------|---------------------------------|
Eb| |---------------------------------|---------------------------------|


Guitar 1
eb| |---------------------------------|---------------------------------|
Bb| |---------------------------------|---------------------------------|
Gb| |----11131311--13b^13b^11--11-----|---------------------------------|
Db| |1315--------15----------15--1513-|1513111311----11--11--11---------|
Ab| |---------------------------------|----------15----15--15--151311---|
Eb| |---------------------------------|---------------------------------|
                                                                        |
Guitar 2                                                                |
eb| |---------------------------------|---------------------------------|
Bb| |---------------------------------|---------------------------------|
Gb| |---------------5-------6---------|-------------------5-----3-------|
Db| |---------------5-x4----6-x28-----|-------------------5-x4--3-x16---|
Ab| |---------------3-------4---------|-------------------3-----1-------|
Eb| |---------------------------------|---------------------------------|

Guitar 1
eb| |---------------------------------|---------------------------------|
Bb| |---------------------------------|---------------------------------|
Gb| |---------------------------------|---------------------------------|
Db| |--11------11----11---------------|---------------------------------|
Ab| |15--151315--1513--151311-14b~----|---------------------------------|
Eb| |---------------------------------|---------------------------------|
                                                                        |
Guitar 2                                                                |
eb| |---------------------------------|---------------------------------|
Bb| |---------------------------------|---------------------------------|
Gb| |---------------------------------|---------------------------------|
Db| |---------------------------------|---------------------------------|
Ab| |---------------------------------|---------------------------------|
Eb| |---------------------------------|---------------------------------|

Guitar 1 & 2
eb| |---------------------------------|---------------------------------|
Bb| |---------------------------------|---------------------------------|
Gb| |---------------------------------|---------------------------------|
Db| |---------------------------------|---------------------------------|
Ab| |---------------------------------|---------------------------------|
Eb| |---------------------------------|---------------------------------|

Guitar 1 & 2
eb| |---------------------------------|
Bb| |---------------------------------|
Gb| |---------------------------------|
Db| |---------------------------------|
Ab| |---------------------------------|
Eb| |---------------------------------|

 ____________________
| Bridge (2:23-2:47) |
|____________________|

Guitar 1
eb| |-2---2---------------------4---4-|-1-----1-------------------------|
Bb| |-2---2---------------------4---4-|-1-----1-------------------------|
Gb| |-4---4---------------------6---6-|-3-----3-------------------------|
Db| |-4---4---------------------6---6-|-3-----3-------------------------|
Ab| |-2---2---------------------4---4-|-1-----1-------------------------|
Eb| |-2---2---------------------4---4-|-1-----1-------------------------|
      The faith you found I never felt

Guitar 1
eb| |-2-------2-----------------2-----|-4------4------------------------|
Bb| |-2-------2-----------------2-----|-4------4------------------------|
Gb| |-4-------4-----------------4-----|-6------6------------------------|
Db| |-4-------4-----------------4-----|-6------6------------------------|
Ab| |-2-------2-----------------2-----|-4------4------------------------|
Eb| |-2-------2-----------------2-----|-4------4------------------------|
                                        never felt
      (never felt)

Guitar 1
eb| |-2---2---2---2---2---2---2---2---|-2---2---2---2---2---2---2---2---|
Bb| |-2---2---2---2---2---2---2---2---|-2---2---2---2---2---2---2---2---|
Gb| |-4---4---4---4---4---4---4---4---|-4---4---4---4---4---4---4---4---|
Db| |-4---4---4---4---4---4---4---4---|-4---4---4---4---4---4---4---4---|
Ab| |-2---2---2---2---2---2---2---2---|-2---2---2---2---2---2---2---2---|
Eb| |-2---2---2---2---2---2---2---2---|-2---2---2---2---2---2---2---2---|
      The terror held in wedding bells  The comfort in there's no one   |
     (The     faith     you've     found     I've     never     felt)   |
                                                                        |
Guitar 2                                                                |
eb| |---------------------------------|---------------------------------|
Bb| |---------------------------------|---------------------------------|
Gb| |---------------------------------|---------------------------------|
Db| |---------------------------------|---------------------------------|
Ab| |---------------------------------|---------------------------------|
Eb| |---------------------------------|---------------------------------|

Guitar 1
eb| |-4---4---4---4---4---4---4---4---|-4---4---4---4---4---4---4---4---|
Bb| |-4---4---4---4---4---4---4---4---|-4---4---4---4---4---4---4---4---|
Gb| |-6---6---6---6---6---6---6---6---|-6---6---6---6---6---6---6---6---|
Db| |-6---6---6---6---6---6---6---6---|-6---6---6---6---6---6---6---6---|
Ab| |-4---4---4---4---4---4---4---4---|-4---4---4---4---4---4---4---4---|
Eb| |-4---4---4---4---4---4---4---4---|-4---4---4---4---4---4---4---4---|
      else, the truth be told I'm never gonna know...                   |
                                                        (never...)      |
                                                                        |
Guitar 2                                                                |
eb| |-----------------------------16--|---1316----1316----1316----1316--|
Bb| |---------------------------------|-14------14------14------14------|
Gb| |---------------------------------|---------------------------------|
Db| |---------------------------------|---------------------------------|
Ab| |---------------------------------|---------------------------------|
Eb| |---------------------------------|---------------------------------|

 ____________________
| Chorus (2:47-3:12) |
|____________________|

Guitar 1 & 2
eb| |---------------------------------|---------------------------------|
Bb| |---------------------------------|---------------------------------|
Gb| |-3-3-3-3-3-3-3-3-3-3-3-3-3-3-3-3-|-5-5-5-5-6-6-6-6-6-6-6-6/8\6/8\8-|
Db| |-x-x-x-x-x-x-x-x-x-x-x-x-x-x-x-x-|-x-x-x-x-x-x-x-x-x-x-x-x-x-x-x-x-|
Ab| |-1-1-1-1-1-1-1-1-1-1-1-1-1-1-1-1-|-3-3-3-3-4-4-4-4-4-4-4-4/6\4/6\6-|
Eb| |---------------------------------|---------------------------------|
      Miami...           Miami...           Miami...               Well

Guitar 1 & 2
eb| |---------------------------------|---------------------------------|
Bb| |---------------------------------|---------------------------------|
Gb| |10101010101010101010101010101010-|-5-5-5-5-3-3-3-3-3-3-3-3---------|
Db| |-x-x-x-x-x-x-x-x-x-x-x-x-x-x-x-x-|-x-x-x-x-x-x-x-x-x-x-x-x---------|
Ab| |-8-8-8-8-8-8-8-8-8-8-8-8-8-8-8-8-|-3-3-3-3-1-1-1-1-1-1-1-1---------|
Eb| |---------------------------------|---------------------------------|
      every hour on the hour,
                              (every hour on the hour)

Guitar 1 & 2
eb| |---------------------------------|---------------------------------|
Bb| |---------------------------------|---------------------------------|
Gb| |-3-3-3-3-3-3-3-3-3-3-3-3-3-3-3-3-|-5-5-5-5-6-6-6-6-6-6-6-6/8\6/8\8-|
Db| |-x-x-x-x-x-x-x-x-x-x-x-x-x-x-x-x-|-x-x-x-x-x-x-x-x-x-x-x-x-x-x-x-x-|
Ab| |-1-1-1-1-1-1-1-1-1-1-1-1-1-1-1-1-|-3-3-3-3-4-4-4-4-4-4-4-4/6\4/6\6-|
Eb| |---------------------------------|---------------------------------|
      Unhand me...       God damn me        Miami...

Guitar 1 & 2
eb| |---------------------------------|---------------------------------|
Bb| |---------------------------------|---------------------------------|
Gb| |10101010101010101010101010101010-|-5-5-5-5-3-3-3-3-3-3-3-3-3-3-3-3-|
Db| |-x-x-x-x-x-x-x-x-x-x-x-x-x-x-x-x-|-x-x-x-x-x-x-x-x-x-x-x-x-x-x-x-x-|
Ab| |-8-8-8-8-8-8-8-8-8-8-8-8-8-8-8-8-|-3-3-3-3-1-1-1-1-1-1-1-1-1-1-1-1-|
Eb| |---------------------------------|---------------------------------|
      Whoever I was then, I can't ever be again

 ___________________
| Outro (3:13-3:41) |
|___________________|

Guitar 1
eb| |---------------------------------|---------------------------------|
Bb| |o--------------------------------|--------------------------------o|
Gb| |---------------------------------|---------------------------------|
Db| |--11----13----11----15--151311---|--11----13----11----15--151311---|
Ab| |11----11----11----11-------------|11----11----11----11------------o|
Eb| |---------------------------------|---------------------------------|
   1.The terror held in wedding bells the comfort in there's no one else|
   2. The truth be told I'm never going to know...                      |
                                                                        |
Guitar 2                                                                |
eb| |---------------------------------|---------------------------------|
Bb| |o--------------------------------|--------------------------------o|
Gb| |---------------------------------|---------------------------------|
Db| |---------------------------------|---------------------------------|
Ab| |o--------------------------------|--------------------------------o|
Eb| |---------------------------------|---------------------------------|

Guitar 1
eb| |---------------------------------|---------------------------------|
Bb| |--------14------16--14----1614---|--------14----14h16p14--14h16p14-|
Gb| |--13--13----13--------13------13-|--13--13----13--------13---------|
Db| |11-------------------------------|11-------------------------------|
Ab| |---------------------------------|---------------------------------|
Eb| |---------------------------------|---------------------------------|
     The terror held in wedding bells the comfort in there's no one else|
                                                                        |
Guitar 2                                                                |
eb| |---------------------------------|---------------------------------|
Bb| |---------------------------------|---------------------------------|
Gb| |---------------------------------|---------------------------------|
Db| |---------------------------------|---------------------------------|
Ab| |---------------------------------|---------------------------------|
Eb| |---------------------------------|---------------------------------|

Guitar 1
eb| |---------------------------------|---------------------------------|
Bb| |--------14----14h16p14--14h16p14-|--------14---------14------------|
Gb| |--13--13----13--------13---------|--13----------13---------13------|
Db| |11-------------------------------|11-------------------------------|
Ab| |---------------------------------|---------------------------------|
Eb| |---------------------------------|---------------------------------|
      The truth be told I'm never going to know...                      |
                                                                        |
Guitar 2                                                                |
eb| |---------------------------------|---------------------------------|
Bb| |---------------------------------|---------------------------------|
Gb| |---------------------------------|---------------------------------|
Db| |---------------------------------|---------------------------------|
Ab| |---------------------------------|---------------------------------|
Eb| |---------------------------------|---------------------------------|

Guitar 1 & 2
eb| |-x---x---x---x---x---x---x----1--|---------------------------------|
Bb| |-x-x-x-x-x-x-x-x-x-x-x-x-x-x--0--|---------------------------------|
Gb| |-x-x-x-x-x-x-x-x-x-x-x-x-x-x--0--|---------------------------------|
Db| |-x-x-x-x-x-x-x-x-x-x-x-x-x-x-----|---------------------------------|
Ab| |-x-x-x-x-x-x-x-x-x-x-x-x-x-x-----|---------------------------------|
Eb| |---x---x---x---x---x---x---x-----|---------------------------------|


 _________________
| Error: Operator |
|_________________|

Tuning: Half-Step Down
Guitar 1- Slight Distortion
Guitar 2- Distortion

 ___________________
| Intro (0:00-0:11) |
|___________________|

Guitar 1 (Bass)
eb| |---------------------------------|---------------------------------|
Bb| |---------------------------------|---------------------------------|
Gb| |---------------------------------|---------------------------------|
Db| |---------------------------------|---------------------------------|
Ab| |-------2-2-2-2-2------/9-9-9-5-5-|-------2-2-2-2-2------/9-9-9-5-5-|
Eb| |-0-0-0-----------3-3-3-----------|-0-0-0-----------3-3-3-----------|
                                                                        |
Guitar 2                                                                |
eb| |---------------------------------|---------------------------------|
Bb| |---------------------------------|---------------------------------|
Gb| |---------------------------------|-------------------------9-9-9-9-|
Db| |---------------------------------|-----------------x-x-x-x-x-x-x-x-|
Ab| |---------------------------------|-7-7-7-7-7-7-7-7-7-7-7-7-7-7-7-7-|
Eb| |---------------------------------|---------------------------------|
                                        * * * * * * * * * * * * *

Guitar 1
eb| |---------------------------------|---------------------------------|
Bb| |---------------------------------|---------------------------------|
Gb| |12--12--12--12--12--12--12111111-|12--12--12--12--12--121212121212-|
Db| |-x---x---x---x---x---x---x-x-x-x-|-x---x---x---x---x---x-x-x-x-x-x-|
Ab| |10--10--10--10--10--10--10-9-9-9-|10--10--10--10--10--101010101010-|
Eb| |---------------------------------|---------------------------------|
                                                                        |
Guitar 2                                                                |
eb| |---------------------------------|---------------------------------|
Bb| |---------------------------------|---------------------------------|
Gb| |-9---9---9---9---9---9---9---9---|-9---9---9---9---9---9---9---9---|
Db| |-x---x---x---x---x---x---x---x---|-x---x---x---x---x---x---x---x---|
Ab| |-7---7---7---7---7---7---7---7---|-7---7---7---7---7---7---7---7---|
Eb| |---------------------------------|---------------------------------|


 ___________________
| Verse (0:11-0:17) |
|___________________|

Guitar 1
eb| |---------------------------------|---------------------------------|
Bb| |---------------------------------|---------------------------------|
Gb| |-------4-4-4-4-4-------7-7-7-7-7-|-------4-4-4-4-4-------7-7-7-7-7-|
Db| |-2-2-2-4-4-4-4-4-5-5-5-7-7-7-7-7-|-2-2-2-4-4-4-4-4-5-5-5-7-7-7-7-7-|
Ab| |-2-2-2-2-2-2-2-2-5-5-5-5-5-5-5-5-|-2-2-2-2-2-2-2-2-5-5-5-5-5-5-5-5-|
Eb| |-0-0-0-----------3-3-3-----------|-0-0-0-----------3-3-3-----------|
                               Calm down there's been an accident, breath
     (There's been an accident)

 ________________________
| Pre-Chorus (0:17-0:22) |
|________________________|

Guitar 1
eb| |---------------------------------|---------------------------------|
Bb| |---------------------------------|---------------------------------|
Gb| |-------4-4-4-4-4-------7-7-7-7-7-|-------4-4-4-4-4-------7-7-7-7-7-|
Db| |-2-2-2-4-4-4-4-4-5-5-5-7-7-7-7-7-|-2-2-2-4-4-4-4-4-5-5-5-7-7-7-7-7-|
Ab| |-2-2-2-2-2-2-2-2-5-5-5-5-5-5-5-5-|-2-2-2-2-2-2-2-2-5-5-5-5-5-5-5-5-|
Eb| |-0-0-0-----------3-3-3-----------|-0-0-0-----------3-3-3-----------|
      in and out calm down        in and out calm down                  |
                   (in and out calm down)         (in and out calm down)|
                                                                        |
Guitar 2                                                                |
eb| |---------------------------------|---------------------------------|
Bb| |---------------------------------|---------------------------------|
Gb| |12--12--12--12--12--12--12111111-|12--12--12--12--12--121212121212-|
Db| |-x---x---x---x---x---x---x-x-x-x-|-x---x---x---x---x---x-x-x-x-x-x-|
Ab| |10--10--10--10--10--10--10-9-9-9-|10--10--10--10--10--101010101010-|
Eb| |---------------------------------|---------------------------------|

 ____________________
| Chorus (0:23-0:34) |
|____________________|

Guitar 1
eb| |---------------------------------|---------------------------------|
Bb| |---------------------------------|---------------------------------|
Gb| |16161616161616161616161616161616-|14141414141414141414141414141414-|
Db| |-x-x-x-x-x-x-x-x-x-x-x-x-x-x-x-x-|-x-x-x-x-x-x-x-x-x-x-x-x-x-x-x-x-|
Ab| |14141414141414141414141414141414-|12121212121212121212121212121212-|
Eb| |---------------------------------|---------------------------------|
      Wait, kid, come back, kid, come back, kid, come back, we can't    |
                                                                        |
Guitar 2                                                                |
eb| |---------------------------------|---------------------------------|
Bb| |---------------------------------|---------------------------------|
Gb| |-5-5-5-5-5-5-5-5-----------------|-7-7-7-7-7-7-7-7-7-7-7-7-7-7-7-7-|
Db| |-5-5-5-5-5-5-5-5-5-5-5-5-5-5-5-5-|-7-7-7-7-7-7-7-7-7-7-7-7-7-7-7-7-|
Ab| |-3-3-3-3-3-3-3-3-5-5-5-5-5-5-5-5-|-5-5-5-5-5-5-5-5-5-5-5-5-5-5-5-5-|
Eb| |-----------------3-3-3-3-3-3-3-3-|---------------------------------|

Guitar 1
eb| |---------------------------------|---------------------------------|
Bb| |---------------------------------|---------------------------------|
Gb| |16161616161616161616161616161616-|14141414141414141414161412161412-|
Db| |-x-x-x-x-x-x-x-x-x-x-x-x-x-x-x-x-|-x-x-x-x-x-x-x-x-x-x-------------|
Ab| |14141414141414141414141414141414-|12121212121212121212-------------|
Eb| |---------------------------------|---------------------------------|
      Wait, kid, come back, kid, come back, kid, come back, we can't    |
                                                                        |
Guitar 2                                                                |
eb| |---------------------------------|---------------------------------|
Bb| |---------------------------------|---------------------------------|
Gb| |-5-5-5-5-5-5-5-5-----------------|-7-7-7-7-7-7-7-7-7-7-7-7-7-7-7-7-|
Db| |-5-5-5-5-5-5-5-5-5-5-5-5-5-5-5-5-|-7-7-7-7-7-7-7-7-7-7-7-7-7-7-7-7-|
Ab| |-3-3-3-3-3-3-3-3-5-5-5-5-5-5-5-5-|-5-5-5-5-5-5-5-5-5-5-5-5-5-5-5-5-|
Eb| |-----------------3-3-3-3-3-3-3-3-|---------------------------------|
 ___________________
| Verse (0:34-0:45) |
|___________________|

Guitar 1
eb| |---------------------------------|---------------------------------|
Bb| |---------------------------------|---------------------------------|
Gb| |-------4-4-4-4-4-------7-7-7-7-7-|-------4-4-4-4-4-------7-7-7-7-7-|
Db| |-2-2-2-4-4-4-4-4-5-5-5-7-7-7-7-7-|-2-2-2-4-4-4-4-4-5-5-5-7-7-7-7-7-|
Ab| |-2-2-2-2-2-2-2-2-5-5-5-5-5-5-5-5-|-2-2-2-2-2-2-2-2-5-5-5-5-5-5-5-5-|
Eb| |-0-0-0-----------3-3-3-----------|-0-0-0-----------3-3-3-----------|
                                        Breathe in and calm down...

Guitar 1
eb| |---------------------------------|---------------------------------|
Bb| |---------------------------------|---------------------------------|
Gb| |-------4-4-4-4-4-------7-7-7-7-7-|-------4-4-4-4-4-------7-7-7-7-7-|
Db| |-2-2-2-4-4-4-4-4-5-5-5-7-7-7-7-7-|-2-2-2-4-4-4-4-4-5-5-5-7-7-7-7-7-|
Ab| |-2-2-2-2-2-2-2-2-5-5-5-5-5-5-5-5-|-2-2-2-2-2-2-2-2-5-5-5-5-5-5-5-5-|
Eb| |-0-0-0-----------3-3-3-----------|-0-0-0-----------3-3-3-----------|
                                                           Oh would you |
                                                                        |
Guitar 2                                                                |
eb| |---------------------------------|---------------------------------|
Bb| |---------------------------------|---------------------------------|
Gb| |12--12--12--12--12--12--12111111-|12--12--12--12--12--121212121212-|
Db| |-x---x---x---x---x---x---x-x-x-x-|-x---x---x---x---x---x-x-x-x-x-x-|
Ab| |10--10--10--10--10--10--10-9-9-9-|10--10--10--10--10--101010101010-|
Eb| |---------------------------------|---------------------------------|

 _______________________
| Interlude (0:46-0:57) |
|_______________________|

Guitar 1
eb| |---------------------------------|---------------------------------|
Bb| |---------------------------------|---------------------------------|
Gb| |---------------------------------|---------------------------------|
Db| |------14----14br------12----12br-|------11----11br-------9-----9br-|
Ab| |---------------------------------|---------------------------------|
Eb| |-0-0-0---0-0-----0-0-0---0-0-----|-0-0-0---0-0-----0-0-0---0-0-----|
      * * *   * *     * * *   * *       * * *   * *     * * *   * *     |
      do it again, again, count backwards from ten                      |
                                                                        |
Guitar 2                                                                |
eb| |---------------------------------|---------------------------------|
Bb| |---------------------------------|---------------------------------|
Gb| |-9-9-9-9-9-9-9-9-9-9-9-9-9-9-9-9-|-9-9-9-9-9-9-9-9-9-9-9-9-9-9-9-9-|
Db| |-x-x-x-x-x-x-x-x-x-x-x-x-x-x-x-x-|-x-x-x-x-x-x-x-x-x-x-x-x-x-x-x-x-|
Ab| |-7-7-7-7-7-7-7-7-7-7-7-7-7-7-7-7-|-7-7-7-7-7-7-7-7-7-7-7-7-7-7-7-7-|
Eb| |---------------------------------|---------------------------------|

Guitar 1
eb| |---------------------------------|---------------------------------|
Bb| |---------------------------------|---------------------------------|
Gb| |---------------------------------|---------------------------------|
Db| |------14----14br------12----12br-|------11----11br-----------------|
Ab| |---------------------------------|---------------------------------|
Eb| |-0-0-0---0-0-----0-0-0---0-0-----|-0-0-0---0-0-----0-0-0-0-0-0-0-0-|
      * * *   * *     * * *   * *       * * *   * *     * * * * * * * * |
      Sometimes I swear I can see straight through you, concentrate,    |
                                        control, Oh would you           |
                                                                        |
Guitar 2                                                                |
eb| |---------------------------------|---------------------------------|
Bb| |---------------------------------|---------------------------------|
Gb| |-9-9-9-9-9-9-9-9-9-9-9-9-9-9-9-9-|-9-9-9-9-9-9-9-9-9-9-9-9-9-9-9-9-|
Db| |-x-x-x-x-x-x-x-x-x-x-x-x-x-x-x-x-|-x-x-x-x-x-x-x-x-x-x-x-x-x-x-x-x-|
Ab| |-7-7-7-7-7-7-7-7-7-7-7-7-7-7-7-7-|-7-7-7-7-7-7-7-7-7-7-7-7-7-7-7-7-|
Eb| |---------------------------------|---------------------------------|

 ____________________
| Chorus (0:57-1:20) |
|____________________|

Guitar 1
eb| |---------------------------------|---------------------------------|
Bb| |---------------------------------|---------------------------------|
Gb| |16161616161616161616161616161616-|14141414141414141414141414141414-|
Db| |-x-x-x-x-x-x-x-x-x-x-x-x-x-x-x-x-|-x-x-x-x-x-x-x-x-x-x-x-x-x-x-x-x-|
Ab| |14141414141414141414141414141414-|12121212121212121212121212121212-|
Eb| |---------------------------------|---------------------------------|
      Wait, kid, come back, kid, come back, kid, come back, we can't    |
                                                                        |
Guitar 2                                                                |
eb| |---------------------------------|---------------------------------|
Bb| |---------------------------------|---------------------------------|
Gb| |-5-5-5-5-5-5-5-5-----------------|-7-7-7-7-7-7-7-7-7-7-7-7-7-7-7-7-|
Db| |-5-5-5-5-5-5-5-5-5-5-5-5-5-5-5-5-|-7-7-7-7-7-7-7-7-7-7-7-7-7-7-7-7-|
Ab| |-3-3-3-3-3-3-3-3-5-5-5-5-5-5-5-5-|-5-5-5-5-5-5-5-5-5-5-5-5-5-5-5-5-|
Eb| |-----------------3-3-3-3-3-3-3-3-|---------------------------------|

Guitar 1
eb| |---------------------------------|---------------------------------|
Bb| |---------------------------------|---------------------------------|
Gb| |16161616161616161616161616161616-|14141414141414141414161412161412-|
Db| |-x-x-x-x-x-x-x-x-x-x-x-x-x-x-x-x-|-x-x-x-x-x-x-x-x-x-x-------------|
Ab| |14141414141414141414141414141414-|12121212121212121212-------------|
Eb| |---------------------------------|---------------------------------|
      Wait, kid, come back, kid, come back, kid, come back, we can't    |
                                                                        |
Guitar 2                                                                |
eb| |---------------------------------|---------------------------------|
Bb| |---------------------------------|---------------------------------|
Gb| |-5-5-5-5-5-5-5-5-----------------|-7-7-7-7-7-7-7-7-7-7-7-7-7-7-7-7-|
Db| |-5-5-5-5-5-5-5-5-5-5-5-5-5-5-5-5-|-7-7-7-7-7-7-7-7-7-7-7-7-7-7-7-7-|
Ab| |-3-3-3-3-3-3-3-3-5-5-5-5-5-5-5-5-|-5-5-5-5-5-5-5-5-5-5-5-5-5-5-5-5-|
Eb| |-----------------3-3-3-3-3-3-3-3-|---------------------------------|

Guitar 1
eb| |---------------------------------|---------------------------------|
Bb| |---------------------------------|---------------------------------|
Gb| |16161616161616161616161616161616-|14141414141414141414141414141414-|
Db| |-x-x-x-x-x-x-x-x-x-x-x-x-x-x-x-x-|-x-x-x-x-x-x-x-x-x-x-x-x-x-x-x-x-|
Ab| |14141414141414141414141414141414-|12121212121212121212121212121212-|
Eb| |---------------------------------|---------------------------------|
      Wait, kid, come back, kid, come back, kid, come back...           |
                                                                        |
Guitar 2                                                                |
eb| |---------------------------------|---------------------------------|
Bb| |---------------------------------|---------------------------------|
Gb| |-5-5-5-5-5-5-5-5-----------------|-7-7-7-7-7-7-7-7-7-7-7-7-7-7-7-7-|
Db| |-5-5-5-5-5-5-5-5-5-5-5-5-5-5-5-5-|-7-7-7-7-7-7-7-7-7-7-7-7-7-7-7-7-|
Ab| |-3-3-3-3-3-3-3-3-5-5-5-5-5-5-5-5-|-5-5-5-5-5-5-5-5-5-5-5-5-5-5-5-5-|
Eb| |-----------------3-3-3-3-3-3-3-3-|---------------------------------|

Guitar 1
eb| |---------------------------------|---------------------------------|
Bb| |---------------------------------|---------------------------------|
Gb| |16161616161616161616161616161616-|---------------------------------|
Db| |-x-x-x-x-x-x-x-x-x-x-x-x-x-x-x-x-|---------------------------------|
Ab| |14141414141414141414141414141414-|-----5---5h7-------5---5h7-----7~|
Eb| |---------------------------------|-0-0---0-----0-0-0---0-----0-0---|
                                                                        |
Guitar 2                                                                |
eb| |---------------------------------|---------------------------------|
Bb| |---------------------------------|---------------------------------|
Gb| |-5-5-5-5-5-5-5-5-----------------|-7-7-7-7-7-7-7-7-7-7-7-7-7-7-7-7-|
Db| |-5-5-5-5-5-5-5-5-5-5-5-5-5-5-5-5-|-7-7-7-7-7-7-7-7-7-7-7-7-7-7-7-7-|
Ab| |-3-3-3-3-3-3-3-3-5-5-5-5-5-5-5-5-|-5-5-5-5-5-5-5-5-5-5-5-5-5-5-5-5-|
Eb| |-----------------3-3-3-3-3-3-3-3-|---------------------------------|

 ____________________
| Bridge (1:20-2:00) |
|____________________|

Guitar 1 & 2
eb| |---------------------------------|---------------------------------|
Bb| |---------------------------------|---------------------------------|
Gb| |---------------------------------|---------------------------------|
Db| |---------------------------------|---------------------------------|
Ab| |---------------------------------|---------------------------------|
Eb| |---------------------------------|---------------------------------|

Guitar 1
eb| |---------------------------------|---------------------------------|
Bb| |---------------------------------|---------------------------------|
Gb| |---------------------------------|---------------------------------|
Db| |------14----14br------12----12br-|------11----11br-------9-----9br-|
Ab| |---------------------------------|---------------------------------|
Eb| |-0-0-0---0-0-----0-0-0---0-0-----|-0-0-0---0-0-----0-0-0---0-0-----|
      * * *   * *     * * *   * *       * * *   * *     * * *   * *     |
                                                                        |
Guitar 2                                                                |
eb| |---------------------------------|---------------------------------|
Bb| |---------------------------------|---------------------------------|
Gb| |---------------------------------|---------------------------------|
Db| |-2-2-2-2-2-2-2-2-2-2-2-2-2-2-2-2-|-2-2-2-2-2-2-2-2-2-2-2-2-2-2-2-2-|
Ab| |-2-2-2-2-2-2-2-2-2-2-2-2-2-2-2-2-|-2-2-2-2-2-2-2-2-2-2-2-2-2-2-2-2-|
Eb| |-0-0-0-0-0-0-0-0-0-0-0-0-0-0-0-0-|-0-0-0-0-0-0-0-0-0-0-0-0-0-0-0-0-|
      * * * * * * * * * * * * * * * *   * * * * * * * * * * * * * * * *

Guitar 1
eb| |12p0--------12p0--------10p0-----|-9p0---------7p0---------5p0-----|
Bb| |-----01012p0-----01012p0-----0h10|-----0h810p0-----0h7h8p0-----7p0-|
Gb| |---------------------------------|---------------------------------|
Db| |---------------------------------|---------------------------------|
Ab| |---------------------------------|---------------------------------|
Eb| |---------------------------------|---------------------------------|

Guitar 1
eb| |12p0--------12p0--------10p0-----|-9p0---------7p0---------5p0-----|
Bb| |-----01012p0-----01012p0-----0h10|-----0h810p0-----0h7h8p0-----7p0-|
Gb| |---------------------------------|---------------------------------|
Db| |---------------------------------|---------------------------------|
Ab| |---------------------------------|---------------------------------|
Eb| |---------------------------------|---------------------------------|
                                                                        |
Guitar 2                                                                |
eb| |---------------------------------|---------------------------------|
Bb| |---------------------------------|---------------------------------|
Gb| |---------------------------------|---------------------------------|
Db| |-2-2-2-2-2-2-2-2-2-2-2-2-2-2-2-2-|-2-2-2-2-2-2-2-2-2-2-2-2-2-2-2-2-|
Ab| |-2-2-2-2-2-2-2-2-2-2-2-2-2-2-2-2-|-2-2-2-2-2-2-2-2-2-2-2-2-2-2-2-2-|
Eb| |-0-0-0-0-0-0-0-0-0-0-0-0-0-0-0-0-|-0-0-0-0-0-0-0-0-0-0-0-0-0-0-0-0-|
      * * * * * * * * * * * * * * * *   * * * * * * * *

Guitar 2
eb| |---------------------------------|---------------------------------|
Bb| |---------------------------------|---------------------------------|
Gb| |---------------------------------|---------------------------------|
Db| |---------------------------------|-2-2-2-2-2-2-2-2-2-2-2-2-2-2-2-2-|
Ab| |---------------------------------|-2-2-2-2-2-2-2-2-2-2-2-2-2-2-2-2-|
Eb| |---------------------------------|-0-0-0-0-0-0-0-0-0-0-0-0-0-0-0-0-|
                                        * * * * * * * * * * * * * * * *
      Where have you, where have you, where have you been...?

Guitar 2
eb| |---------------------------------|---------------------------------|
Bb| |---------------------------------|---------------------------------|
Gb| |---------------------------------|---------------------------------|
Db| |-2-2-2-2-2-2-2-2-2-2-2-2-2-2-2-2-|-2-2-2-2-2-2-2-2-2-2-2-2-2-2-2-2-|
Ab| |-2-2-2-2-2-2-2-2-2-2-2-2-2-2-2-2-|-2-2-2-2-2-2-2-2-2-2-2-2-2-2-2-2-|
Eb| |-0-0-0-0-0-0-0-0-0-0-0-0-0-0-0-0-|-0-0-0-0-0-0-0-0-0-0-0-0-0-0-0-0-|
        * * * * * * * * * * * * * * *     * * * * * * * * * * * * * * *
      Where have you, where have you, where have you been...?

Guitar 2
eb| |---------------------------------|---------------------------------|
Bb| |---------------------------------|---------------------------------|
Gb| |---------------------------------|---------------------------------|
Db| |-2-2-2-2-2-2-2-2-2-2-2-2-2-2-2-2-|-2-2-2-2-2-2-2-2-2-2-------------|
Ab| |-2-2-2-2-2-2-2-2-2-2-2-2-2-2-2-2-|-2-2-2-2-2-2-2-2-2-2-------------|
Eb| |-0-0-0-0-0-0-0-0-0-0-0-0-0-0-0-0-|-0-0-0-0-0-0-0-0-0-0-------------|
        * * * * * * *   * * * * * * *     * *   * *   * *
      Where have you, where have you, where have you been...

 __________________
| Solo (2:00-2:23) |
|__________________|

Guitar 1
eb| |12p0--------12p0--------10p0-----|-9p0---------7p0---------5p0-----|
Bb| |o----01012p0-----01012p0-----0h10|-----0h810p0-----0h7h8p0-----7p0o|
Gb| |---------------------------------|---------------------------------|
Db| |---------------------------------|---------------------------------|
Ab| |o--------------------------------|--------------------------------o|
Eb| |---------------------------------|---------------------------------|
   1.                                                                   |
   2.                                                                   |
                                                                        |
Guitar 2                                                                |
eb| |---------------------------------|---------------------------------|
Bb| |o--------------------------------|--------------------------------o|
Gb| |-9-9-9-9-9-9-9-9-7-7-7-7-7-7-7-7-|-6-6-6-6-6-6-6-6-4-4-4-4-4-4-4-4-|
Db| |-x-x-x-x-x-x-x-x-x-x-x-x-x-x-x-x-|-x-x-x-x-x-x-x-x-x-x-x-x-x-x-x-x-|
Ab| |o7-7-7-7-7-7-7-7-5-5-5-5-5-5-5-5-|-4-4-4-4-4-4-4-4-2-2-2-2-2-2-2-2o|
Eb| |---------------------------------|---------------------------------|

Guitar 1
eb| |12p0--------12p0--------10p0-----|-9p0---------7p0---------5p0-----|
Bb| |-----01012p0-----01012p0-----0h10|-----0h810p0-----0h7h8p0-----7p0-|
Gb| |---------------------------------|---------------------------------|
Db| |---------------------------------|---------------------------------|
Ab| |---------------------------------|---------------------------------|
Eb| |---------------------------------|---------------------------------|
                                                                        |
Guitar 2                                                                |
eb| |---------------------------------|---------------------------------|
Bb| |---------------------------------|---------------------------------|
Gb| |-9-9-9-9-9-9-9-91111111111111111-|12121212121212121414141414141414-|
Db| |-x-x-x-x-x-x-x-x-x-x-x-x-x-x-x-x-|-x-x-x-x-x-x-x-x-x-x-x-x-x-x-x-x-|
Ab| |-7-7-7-7-7-7-7-7-9-9-9-9-9-9-9-9-|10101010101010101212121212121212-|
Eb| |---------------------------------|---------------------------------|

Guitar 1
eb| |12p0--------12p0--------10p0-----|-9p0---------7p0---------5p0-----|
Bb| |-----01012p0-----01012p0-----0h10|-----0h810p0-----0h7h8p0-----7p0-|
Gb| |---------------------------------|---------------------------------|
Db| |---------------------------------|---------------------------------|
Ab| |---------------------------------|---------------------------------|
Eb| |---------------------------------|---------------------------------|
                                                                        |
Guitar 2                                                                |
eb| |---------------------------------|---------------------------------|
Bb| |---------------------------------|---------------------------------|
Gb| |-9-9-9-9-9-9-9-9-7-7-7-7-7-7-7-7-|-6-6-6-6-6-6-6-6-4-4-4-4-4-4-4-4-|
Db| |-x-x-x-x-x-x-x-x-x-x-x-x-x-x-x-x-|-x-x-x-x-x-x-x-x-x-x-x-x-x-x-x-x-|
Ab| |-7-7-7-7-7-7-7-7-5-5-5-5-5-5-5-5-|-4-4-4-4-4-4-4-4-2-2-2-2-2-2-2-2-|
Eb| |---------------------------------|---------------------------------|

 ____________________
| Chorus (2:23-2:34) |
|____________________|

Guitar 1
eb| |---------------------------------|---------------------------------|
Bb| |---------------------------------|---------------------------------|
Gb| |16161616161616161616161616161616-|14141414141414141414141414141414-|
Db| |-x-x-x-x-x-x-x-x-x-x-x-x-x-x-x-x-|-x-x-x-x-x-x-x-x-x-x-x-x-x-x-x-x-|
Ab| |14141414141414141414141414141414-|12121212121212121212121212121212-|
Eb| |---------------------------------|---------------------------------|
      Wait, kid, come back, kid, come back, kid, come back, we can't    |
                                                                        |
Guitar 2                                                                |
eb| |---------------------------------|---------------------------------|
Bb| |---------------------------------|---------------------------------|
Gb| |-5-5-5-5-5-5-5-5-----------------|-7-7-7-7-7-7-7-7-7-7-7-7-7-7-7-7-|
Db| |-5-5-5-5-5-5-5-5-5-5-5-5-5-5-5-5-|-7-7-7-7-7-7-7-7-7-7-7-7-7-7-7-7-|
Ab| |-3-3-3-3-3-3-3-3-5-5-5-5-5-5-5-5-|-5-5-5-5-5-5-5-5-5-5-5-5-5-5-5-5-|
Eb| |-----------------3-3-3-3-3-3-3-3-|---------------------------------|

Guitar 1
eb| |---------------------------------|---------------------------------|
Bb| |---------------------------------|---------------------------------|
Gb| |16161616161616161616161616161616-|14141414141414141414161412161412-|
Db| |-x-x-x-x-x-x-x-x-x-x-x-x-x-x-x-x-|-x-x-x-x-x-x-x-x-x-x-------------|
Ab| |14141414141414141414141414141414-|12121212121212121212-------------|
Eb| |---------------------------------|---------------------------------|
      Wait, kid, come back, kid, come back, kid, come back, we can't    |
                                                                        |
Guitar 2                                                                |
eb| |---------------------------------|---------------------------------|
Bb| |---------------------------------|---------------------------------|
Gb| |-5-5-5-5-5-5-5-5-----------------|-7-7-7-7-7-7-7-7-7-7-7-7-7-7-7-7-|
Db| |-5-5-5-5-5-5-5-5-5-5-5-5-5-5-5-5-|-7-7-7-7-7-7-7-7-7-7-7-7-7-7-7-7-|
Ab| |-3-3-3-3-3-3-3-3-5-5-5-5-5-5-5-5-|-5-5-5-5-5-5-5-5-5-5-5-5-5-5-5-5-|
Eb| |-----------------3-3-3-3-3-3-3-3-|---------------------------------|

 ___________________
| Outro (2:35-2:51) |
|___________________|

Guitar 1
eb| |---------------------------------|---------------------------------|
Bb| |---------------------------------|---------------------------------|
Gb| |16161616161616161616161616161616-|14141414141414141414141414141414-|
Db| |-x-x-x-x-x-x-x-x-x-x-x-x-x-x-x-x-|-x-x-x-x-x-x-x-x-x-x-x-x-x-x-x-x-|
Ab| |14141414141414141414141414141414-|12121212121212121212121212121212-|
Eb| |---------------------------------|---------------------------------|
      Wait, kid, come back, kid, come back, kid, come back, we can't    |
                                                                        |
Guitar 2                                                                |
eb| |---------------------------------|---------------------------------|
Bb| |---------------------------------|---------------------------------|
Gb| |-5-5-5-5-5-5-5-5-----------------|-7-7-7-7-7-7-7-7-7-7-7-7-7-7-7-7-|
Db| |-5-5-5-5-5-5-5-5-5-5-5-5-5-5-5-5-|-7-7-7-7-7-7-7-7-7-7-7-7-7-7-7-7-|
Ab| |-3-3-3-3-3-3-3-3-5-5-5-5-5-5-5-5-|-5-5-5-5-5-5-5-5-5-5-5-5-5-5-5-5-|
Eb| |-----------------3-3-3-3-3-3-3-3-|---------------------------------|

Guitar 1
eb| |---------------------------------|---------------------------------|
Bb| |---------------------------------|---------------------------------|
Gb| |16161616161616161616161616161616-|---------------------------------|
Db| |-x-x-x-x-x-x-x-x-x-x-x-x-x-x-x-x-|---------------------------------|
Ab| |14141414141414141414141414141414-|-----5---5h7-------5---5h7-5h7---|
Eb| |---------------------------------|-0-0---0-----0-0-0---0---------0~|
      Wait, kid, come back, kid, come back...                           |
Guitar 2                                                                |
eb| |---------------------------------|---------------------------------|
Bb| |---------------------------------|---------------------------------|
Gb| |-5-5-5-5-5-5-5-5-----------------|-7-7-7-7-7-7-7-7-7-7-7-7-7-7-7-7-|
Db| |-5-5-5-5-5-5-5-5-5-5-5-5-5-5-5-5-|-7-7-7-7-7-7-7-7-7-7-7-7-7-7-7-7-|
Ab| |-3-3-3-3-3-3-3-3-5-5-5-5-5-5-5-5-|-5-5-5-5-5-5-5-5-5-5-5-5-5-5-5-5-|
Eb| |-----------------3-3-3-3-3-3-3-3-|---------------------------------|


 ___________________
| I'll Let You Live |
|___________________|

Tuning: Half-Step Down
Guitar 1- Slight Distortion
Guitar 2- Distortion

 ___________________
| Intro (0:00-0:04) |
|___________________|

Guitar 1
eb| |---------------------------------|
Bb| |---------------------------------|
Gb| |-2-4-4---2-4-4---2-4-4---2-4-4---|
Db| |-2-4-4---2-4-4---2-4-4---2-4-4---|
Ab| |-0-2-2---0-2-2---0-2-2---0-2-2---|
Eb| |---------------------------------|

 ___________________
| Verse (0:05-0:22) |
|___________________|

Guitar 1
eb| |---------------------------------|---------------------------------|
Bb| |---------------------------------|---------------------------------|
Gb| |-2-4-4---2-4-4---2-4-4---2-4-4---|-2-4-4---2-4-4---2-4-4---2-4-4---|
Db| |-2-4-4---2-4-4---2-4-4---2-4-4---|-2-4-4---2-4-4---2-4-4---2-4-4---|
Ab| |-0-2-2---0-2-2---0-2-2---0-2-2---|-0-2-2---0-2-2---0-2-2---0-2-2---|
Eb| |---------------------------------|---------------------------------|
      The first degree was a riot, we're making sure My lesson's learned

Guitar 1
eb| |---------------------------------|---------------------------------|
Bb| |---------------------------------|---------------------------------|
Gb| |-2-4-4---2-4-4---2-4-4---2-4-4---|-2-4-4---2-4-4---2-4-4-----------|
Db| |-2-4-4---2-4-4---2-4-4---2-4-4---|-2-4-4---2-4-4---2-4-4-----------|
Ab| |-0-2-2---0-2-2---0-2-2---0-2-2---|-0-2-2---0-2-2---0-2-2-----------|
Eb| |---------------------------------|---------------------------------|
      I'm not ashamed but I'm trying    I've come to expect
                                          (the standards you have set...)

 ________________________
| Pre-Chorus (0:23-0:40) |
|________________________|

Guitar 1
eb| |---------------------------------|----9---------------12--10---9---|
Bb| |--------------------12----10-----|------------10-------------------|
Gb| |---------------------------------|---------------------------------|
Db| |---------------------------------|---------------------------------|
Ab| |---------------------------------|---------------------------------|
Eb| |---------------------------------|---------------------------------|
      Tell me just how dangerous is second best, you've settled for     |
                                                                        |
Guitar 2                                                                |
eb| |---------------------------------|---------------------------------|
Bb| |---------------------------------|---------------------------------|
Gb| |--11--11--11--11--11--11--11--11-|--11--11--11--11--11--11--11--11-|
Db| |-9---9---9---9---9---9---9---9---|-9---9---9---9---9---9---9---9---|
Ab| |---------------------------------|---------------------------------|
Eb| |---------------------------------|---------------------------------|

Guitar 1
eb| |---------------------------------|----9---------------12--10---9\--|
Bb| |--------------------12----10-----|------------10-------------------|
Gb| |---------------------------------|---------------------------------|
Db| |---------------------------------|---------------------------------|
Ab| |---------------------------------|---------------------------------|
Eb| |---------------------------------|---------------------------------|
      less and I'm sure you'll settle again...                          |
                                                                        |
Guitar 2                                                                |
eb| |---------------------------------|---------------------------------|
Bb| |---------------------------------|---------------------------------|
Gb| |--11--11--11--11--11--11--11--11-|--11--11--11--11--11--11--11--11-|
Db| |-9---9---9---9---9---9---9---9---|-9---9---9---9---9---9---9---9---|
Ab| |---------------------------------|---------------------------------|
Eb| |---------------------------------|---------------------------------|

 ____________________
| Chorus (0:40-0:59) |
|____________________|

Guitar 1
eb| |---------------------------------|---------------------------------|
Bb| |---------------------------------|---------------------------------|
Gb| |---------------------------------|---------------------------------|
Db| |-5-5-5~--------------------------|-5-5-5~----------2-2-2~------4---|
Ab| |-5-5-5~--------------------------|-5-5-5~----------2-2-2~------4b--|
Eb| |-3-3-3~--------------------------|-3-3-3~----------0-0-0~------2b--|
      There's no stopping me            I'm gutting you down
                                           (Does this make you feel safe)

Guitar 1
eb| |---------------------------------|---------------------------------|
Bb| |---------------------------------|---------------------------------|
Gb| |---------------------------------|---------------------------------|
Db| |-5-5-5~--------------------------|-5-5-5~----------2-2-2-2-2-2-2-2-|
Ab| |-5-5-5~--------------------------|-5-5-5~----------2-2-2-2-2-2-2-2-|
Eb| |-3-3-3~--------------------------|-3-3-3~----------0-0-0-0-0-0-0-0-|
                                                        * * * * * * * *
      There's no stopping me            I'm gutting you down
                                           (Does this make you feel safe)

 ________________________
| Pre-Chorus (0:59-1:16) |
|________________________|

Guitar 1
eb| |---------------------------------|----9---------------12--10---9---|
Bb| |--------------------12----10-----|------------10-------------------|
Gb| |---------------------------------|---------------------------------|
Db| |---------------------------------|---------------------------------|
Ab| |---------------------------------|---------------------------------|
Eb| |---------------------------------|---------------------------------|
      The close that I look is just the further that you get already    |
                                                                        |
Guitar 2                                                                |
eb| |---------------------------------|---------------------------------|
Bb| |---------------------------------|---------------------------------|
Gb| |--11--11--11--11--11--11--11--11-|--11--11--11--11--11--11--11--11-|
Db| |-9---9---9---9---9---9---9---9---|-9---9---9---9---9---9---9---9---|
Ab| |---------------------------------|---------------------------------|
Eb| |---------------------------------|---------------------------------|

Guitar 1
eb| |---------------------------------|----9---------------12--10---9\--|
Bb| |--------------------12----10-----|------------10-------------------|
Gb| |---------------------------------|---------------------------------|
Db| |---------------------------------|---------------------------------|
Ab| |---------------------------------|---------------------------------|
Eb| |---------------------------------|---------------------------------|
      Stubborn skins thickens in an attempt to understand               |
                                                            (understand)|
                                                                        |
Guitar 2                                                                |
eb| |---------------------------------|---------------------------------|
Bb| |---------------------------------|---------------------------------|
Gb| |--11--11--11--11--11--11--11--11-|--11--11--11--11--11--11--11--11-|
Db| |-9---9---9---9---9---9---9---9---|-9---9---9---9---9---9---9---9---|
Ab| |---------------------------------|---------------------------------|
Eb| |---------------------------------|---------------------------------|

 ____________________
| Chorus (1:17-1:35) |
|____________________|

Guitar 1
eb| |---------------------------------|---------------------------------|
Bb| |---------------------------------|---------------------------------|
Gb| |---------------------------------|---------------------------------|
Db| |-5-5-5~--------------------------|-5-5-5~----------2-2-2~------4---|
Ab| |-5-5-5~--------------------------|-5-5-5~----------2-2-2~------4b--|
Eb| |-3-3-3~--------------------------|-3-3-3~----------0-0-0~------2b--|
      There's no stopping me            I'm gutting you down
                                           (Does this make you feel safe)

Guitar 1
eb| |---------------------------------|---------------------------------|
Bb| |---------------------------------|---------------------------------|
Gb| |---------------------------------|---------------------------------|
Db| |-5-5-5~--------------------------|-5-5-5~----------2-2-2-2-2-2-2-2-|
Ab| |-5-5-5~--------------------------|-5-5-5~----------2-2-2-2-2-2-2-2-|
Eb| |-3-3-3~--------------------------|-3-3-3~----------0-0-0-0-0-0-0-0-|
                                                        * * * * * * * *
      There's no stopping me            I'm gutting you down
                                           (Does this make you feel safe)

 ____________________
| Bridge (1:35-1:53) |
|____________________|

Guitar 1
eb| |---------------------------------|---------------------------------|
Bb| |---------------------------------|---------------------------------|
Gb| |-4---4-----------4-2---2---------|-7---7-----------7---------------|
Db| |-4---4-----------4-2---2---------|-7---7-----------7-5---5---------|
Ab| |-2---2-----------2-0---0---------|-5---5-----------5-5---5---------|
Eb| |---------------------------------|-------------------3---3---------|
      Got tired             of waiting              when guilt subsides
                (Got tired)            (of waiting)

Guitar 1
eb| |---------------------------------|---------------------------------|
Bb| |---------------------------------|---------------------------------|
Gb| |-4-4-4-4-6-6-6-6-7-7-7-7-9-9-9-9-|---------------------------------|
Db| |-x-x-x-x-x-x-x-x-x-x-x-x-x-x-x-x-|-4-4-4-4-4-4-4-4-5-5-5-5-4-4-4-4-|
Ab| |-2-2-2-2-4-4-4-4-5-5-5-5-7-7-7-7-|-4-4-4-4-4-4-4-4-5-5-5-5-4-4-4-4-|
Eb| |---------------------------------|-2-2-2-2-2-2-2-2-3-3-3-3-2-2-2-2-|
      I know it's not what you deserve...

 _______________________
| Interlude (1:53-2:11) |
|_______________________|

Guitar 1
eb| |14----14----14/17-17--17--17--17-|141414--121212--10101010br-----9-|
Bb| |14----14----14/17-17--17--17--17-|141414--121212--10101010br-----9-|
Gb| |---------------------------------|---------------------------------|
Db| |---------------------------------|---------------------------------|
Ab| |---------------------------------|---------------------------------|
Eb| |---------------------------------|---------------------------------|

Guitar 1
eb| |10--12--10--12--14\--------------|---------------------------------|
Bb| |10--12--10--12--14\--------------|---------------------------------|
Gb| |---------------------------------|---------------------------------|
Db| |---------------------------------|---------------------------------|
Ab| |---------------------------------|---------------------------------|
Eb| |---------------------------------|---------------------------------|
                      Came as a gift from a good friend that

Guitar 1
eb| |---------------------------------|---------------------------------|
Bb| |---------------------------------|---------------------------------|
Gb| |---------------------------------|---------------------------------|
Db| |---------------------------------|---------------------------------|
Ab| |---------------------------------|---------------------------------|
Eb| |---------------------------------|---------------------------------|
      disapproves but understands...

 _______________________
| Pre-Chorus (2:11-2:29 |
|_______________________|

Guitar 1
eb| |---------------------------------|----9---------------12--10---9---|
Bb| |--------------------12----10-----|------------10-------------------|
Gb| |---------------------------------|---------------------------------|
Db| |---------------------------------|---------------------------------|
Ab| |---------------------------------|---------------------------------|
Eb| |---------------------------------|---------------------------------|
      You represent, actively encourage all of my worst habits they all |
                                                                        |
Guitar 2                                                                |
eb| |---------------------------------|---------------------------------|
Bb| |---------------------------------|---------------------------------|
Gb| |--11--11--11--11--11--11--11--11-|--11--11--11--11--11--11--11--11-|
Db| |-9---9---9---9---9---9---9---9---|-9---9---9---9---9---9---9---9---|
Ab| |---------------------------------|---------------------------------|
Eb| |---------------------------------|---------------------------------|

Guitar 1
eb| |---------------------------------|----9---------------12--10---9\--|
Bb| |--------------------12----10-----|------------10-------------------|
Gb| |---------------------------------|---------------------------------|
Db| |---------------------------------|---------------------------------|
Ab| |---------------------------------|---------------------------------|
Eb| |---------------------------------|---------------------------------|
      are proof that we're both capable of the most terrible things     |
                                                         (Don't test me)|
                                                                        |
Guitar 2                                                                |
eb| |---------------------------------|---------------------------------|
Bb| |---------------------------------|---------------------------------|
Gb| |--11--11--11--11--11--11--11--11-|--11--11--11--11--11--11--11--11-|
Db| |-9---9---9---9---9---9---9---9---|-9---9---9---9---9---9---9---9---|
Ab| |---------------------------------|---------------------------------|
Eb| |---------------------------------|---------------------------------|

 ___________________
| Chorus 2:29-2:47) |
|___________________|

Guitar 1
eb| |---------------------------------|---------------------------------|
Bb| |---------------------------------|---------------------------------|
Gb| |---------------------------------|---------------------------------|
Db| |-5-5-5~--------------------------|-5-5-5~----------2-2-2~------4---|
Ab| |-5-5-5~--------------------------|-5-5-5~----------2-2-2~------4b--|
Eb| |-3-3-3~--------------------------|-3-3-3~----------0-0-0~------2b--|
      There's no stopping me            I'm gutting you down
                                           (Does this make you feel safe)

Guitar 1
eb| |---------------------------------|---------------------------------|
Bb| |---------------------------------|---------------------------------|
Gb| |---------------------------------|---------------------------------|
Db| |-5-5-5~--------------------------|-5-5-5~----------2-2-2-2-2-2-2-2-|
Ab| |-5-5-5~--------------------------|-5-5-5~----------2-2-2-2-2-2-2-2-|
Eb| |-3-3-3~--------------------------|-3-3-3~----------0-0-0-0-0-0-0-0-|
                                                        * * * * * * * *
      There's no stopping me            I'm gutting you down
                                           (Does this make you feel safe)
 ____________________
| Bridge (2:47-3:23) |
|____________________|

Guitar 1
eb| |---------------------------------|---------------------------------|
Bb| |o--------------------------------|---------------------------------|
Gb| |-4---4-----------4-2---2---------|-7---7-----------7---------------|
Db| |-4---4-----------4-2---2---------|-7---7-----------7-5---5---------|
Ab| |o2---2-----------2-0---0---------|-5---5-----------5-5---5---------|
Eb| |---------------------------------|-------------------3---3---------|
   1.  Got tired             of waiting              when guilt subsides
                (Got tired)            (of waiting)
   2.  Got tired             of waiting              when guilt subsides
                (Got tired)            (of waiting)

Guitar 1
eb| |---------------------------------|---------------------------------|
Bb| |---------------------------------|--------------------------------o|
Gb| |-4-4-4-4-6-6-6-6-7-7-7-7-9-9-9-9-|---------------------------------|
Db| |-x-x-x-x-x-x-x-x-x-x-x-x-x-x-x-x-|-4-4-4-4-4-4-4-4-5-5-5-5-4-4-4-4-|
Ab| |-2-2-2-2-4-4-4-4-5-5-5-5-7-7-7-7-|-4-4-4-4-4-4-4-4-5-5-5-5-4-4-4-4o|
Eb| |---------------------------------|-2-2-2-2-2-2-2-2-3-3-3-3-2-2-2-2-|
   1. I know it's not what you deserve...
   2. I know it's not what you deserve...

 _______________________
| Interlude (3:23-3:32) |
|_______________________|

Guitar 1
eb| |---------------------------------|---------------------------------|
Bb| |---------------------------------|---------------------------------|
Gb| |-2-4-4---2-4-4---2-4-4---2-4-4---|-2-4-4---2-4-4---2-4-4---2-4-4-/-|
Db| |-2-4-4---2-4-4---2-4-4---2-4-4---|-2-4-4---2-4-4---2-4-4---2-4-4---|
Ab| |-0-2-2---0-2-2---0-2-2---0-2-2---|-0-2-2---0-2-2---0-2-2---0-2-2-/-|
Eb| |---------------------------------|---------------------------------|

 __________________
| Solo (3:32-4:08) |
|__________________|

Guitar 1
eb| |---------------------------------|---------------------------------|
Bb| |---------------------------------|---------------------------------|
Gb| |16161616161618181414141414141212-|1111141418181818181818181818\----|
Db| |-x-x-x-x-x-x-x-x-x-x-x-x-x-x-x-x-|-x-x-x-x-x-x-x-x-x-x-x-x-x-------|
Ab| |14141414141416161212121212121010-|-9-9121216161616161616161616\----|
Eb| |---------------------------------|---------------------------------|
                                                                        |
Guitar 2                                                                |
eb| |---------------------------------|---------------------------------|
Bb| |---------------------------------|---------------------------------|
Gb| |-4-4-4-4---------2-2-2-2---------|-4-4-4-4---------2-2-2-2---------|
Db| |-4-4-4-4-4-4-4-4-2-2-2-2-4-4-4-4-|-4-4-4-4-4-4-4-4-2-2-2-2-4-4-4-4-|
Ab| |-2-2-2-2-4-4-4-4-0-0-0-0-4-4-4-4-|-2-2-2-2-4-4-4-4-0-0-0-0-4-4-4-4-|
Eb| |---------2-2-2-2---------2-2-2-2-|---------2-2-2-2---------2-2-2-2-|

Guitar 1
eb| |---------------------------------|---------------------------------|
Bb| |o--------------------------------|----------------------19191919---|
Gb| |16161616161618181414141414141212-|11111414181818181818181818181818-|
Db| |-x-x-x-x-x-x-x-x-x-x-x-x-x-x-x-x-|-x-x-x-x-x-x-x-x-x-x-x-x-x-x-x-x-|
Ab| |14141414141416161212121212121010-|-9-91212161616161616161616161616-|
Eb| |---------------------------------|---------------------------------|
                                                                        |
Guitar 2                                                                |
eb| |---------------------------------|---------------------------------|
Bb| |---------------------------------|--------------------------------o|
Gb| |-4-4-4-4---------2-2-2-2---------|-4-4-4-4---------2-2-2-2---------|
Db| |-4-4-4-4-4-4-4-4-2-2-2-2-4-4-4-4-|-4-4-4-4-4-4-4-4-2-2-2-2-4-4-4-4-|
Ab| |-2-2-2-2-4-4-4-4-0-0-0-0-4-4-4-4-|-2-2-2-2-4-4-4-4-0-0-0-0-4-4-4-4o|
Eb| |---------2-2-2-2---------2-2-2-2-|---------2-2-2-2---------2-2-2-2-|

Guitar 1
eb| |---------------------------------|---------------------------------|
Bb| |---------------------------------|---------------------------------|
Gb| |-4-4-4-4---------2-2-2-2---------|-4-4-4-4---------2-2-2-2---------|
Db| |-4-4-4-4-4-4-4-4-2-2-2-2-4-4-4-4-|-4-4-4-4-4-4-4-4-2-2-2-2-4-4-4-4-|
Ab| |-2-2-2-2-4-4-4-4-0-0-0-0-4-4-4-4-|-2-2-2-2-4-4-4-4-0-0-0-0-4-4-4-4-|
Eb| |---------2-2-2-2---------2-2-2-2-|---------2-2-2-2---------2-2-2-2-|
                                                                        |
Guitar 2                                                                |
eb| |---------------------------------|---------------------------------|
Bb| |---------------------------------|---------------------------------|
Gb| |-4-4-4-4---------2-2-2-2---------|-4-4-4-4---------2-2-2-2---------|
Db| |-4-4-4-4-4-4-4-4-2-2-2-2-4-4-4-4-|-4-4-4-4-4-4-4-4-2-2-2-2-4-4-4-4-|
Ab| |-2-2-2-2-4-4-4-4-0-0-0-0-4-4-4-4-|-2-2-2-2-4-4-4-4-0-0-0-0-4-4-4-4-|
Eb| |---------2-2-2-2---------2-2-2-2-|---------2-2-2-2---------2-2-2-2-|

 ___________________
| Outro (4:08-5:08) |
|___________________|

Guitar 1
eb| |---------------------------------|---------------------------------|
Bb| |---------------------------------|---------------------------------|
Gb| |-4-4-4-4-6-6-6-6-7-7-7-7-9-9-9-9-|-4-4-4-4-6-6-6-6-7-7-7-7-9-9-9-9-|
Db| |-x-x-x-x-x-x-x-x-x-x-x-x-x-x-x-x-|-x-x-x-x-x-x-x-x-x-x-x-x-x-x-x-x-|
Ab| |-2-2-2-2-4-4-4-4-5-5-5-5-7-7-7-7-|-2-2-2-2-4-4-4-4-5-5-5-5-7-7-7-7-|
Eb| |---------------------------------|---------------------------------|
      I know it's not what you deserve, it's not what you deserve       |
                                                                        |
Guitar 2                                                                |
eb| |---------------------------------|---------------------------------|
Bb| |---------------------------------|---------------------------------|
Gb| |-4-4-4-4---------2-2-2-2---------|-4-4-4-4---------2-2-2-2---------|
Db| |-4-4-4-4-4-4-4-4-2-2-2-2-4-4-4-4-|-4-4-4-4-4-4-4-4-2-2-2-2-4-4-4-4-|
Ab| |-2-2-2-2-4-4-4-4-0-0-0-0-4-4-4-4-|-2-2-2-2-4-4-4-4-0-0-0-0-4-4-4-4-|
Eb| |---------2-2-2-2---------2-2-2-2-|---------2-2-2-2---------2-2-2-2-|

Guitar 1
eb| |---------------------------------|---------------------------------|
Bb| |---------------------------------|---------------------------------|
Gb| |-4-4-4-4-6-6-6-6-7-7-7-7-9-9-9-9-|11-9111211121419-4~--------------|
Db| |-x-x-x-x-x-x-x-x-x-x-x-x-x-x-x-x-|-x-x-x-x-x-x-x-x-4~--------------|
Ab| |-2-2-2-2-4-4-4-4-5-5-5-5-7-7-7-7-|-9-7-910-9101217-2~--------------|
Eb| |---------------------------------|---------------------------------|
      I know it's not what you deserve, it's not what you deserve       |
                                                                        |
Guitar 2                                                                |
eb| |---------------------------------|---------------------------------|
Bb| |---------------------------------|---------------------------------|
Gb| |-4-4-4-4---------2-2-2-2---------|-4-4-4-4---------4~--------------|
Db| |-4-4-4-4-4-4-4-4-2-2-2-2-4-4-4-4-|-4-4-4-4-4-4-4-4-4~--------------|
Ab| |-2-2-2-2-4-4-4-4-0-0-0-0-4-4-4-4-|-2-2-2-2-4-4-4-4-2~--------------|
Eb| |---------2-2-2-2---------2-2-2-2-|---------2-2-2-2-----------------|

Guitar 1
eb| |---------------------------------|---------------------------------|
Bb| |---------------------------------|---------------------------------|
Gb| |---------------------------------|---------------------------------|
Db| |---------------------------------|---------------------------------|
Ab| |---------------------------------|---------------------------------|
Eb| |---------------------------------|---------------------------------|


 ________________________________________________
| Brooklyn (If You See Something, Say Something) |
|________________________________________________|

Tuning: Half-Step Down
Guitar 1- Slight Distortion
Guitar 2- Distortion

 ___________________
| Intro (0:00-0:19) |
|___________________|

Guitar 1
eb| |---------------------------------|
Bb| |-x-------------------------------|
Gb| |-7~------------------------------|
Db| |-0~------------------------------|
Ab| |-0~------------------------------|
Eb| |-x-------------------------------|

Guitar 1
eb| |---------------------------------|---------------------------------|
Bb| |o7-7-7-8-8-8101010-7-7-7-7-5-5-5/|-7-7-7-8-8-8101010-7-7-7-7-5-5-5/|
Gb| |-7-7-7-7-7-7-7-7-7(7-7-7-7-7-7-7)|-7-7-7-7-7-7-7-7-7(7-7-7-7-7-7-7)|
Db| |---------------------------------|---------------------------------|
Ab| |o--------------------------------|--------------------------------o|
Eb| |---------------------------------|---------------------------------|
   1.                                                                   |
   2.                                                                   |
                                                                        |
Guitar 2                                                                |
eb| |---------------------------------|---------------------------------|
Bb| |o--------------------------------|--------------------------------o|
Gb| |-----------------7-7-7-7-7-7-7-7-|-----------------7-7-7-7-7-7-7-7-|
Db| |-5-5-5-5-5-5-5-5-7-7-7-7-7-7-7-7-|-5-5-5-5-5-5-5-5-7-7-7-7-7-7-7-7-|
Ab| |o5-5-5-5-5-5-5-5-5-5-5-5-5-5-5-5-|-5-5-5-5-5-5-5-5-5-5-5-5-5-5-5-5o|
Eb| |-3-3-3-3-3-3-3-3-----------------|-3-3-3-3-3-3-3-3-----------------|

 ___________________
| Verse (0:19-0:42) |
|___________________|

Guitar 1
eb| |---------------------------------|---------------------------------|
Bb| |-7---7---7h8p7h8-7---7---7p5h7p5-|-7---7---7h8p7h8-7---7---7p5h7p5-|
Gb| |---------------------------------|---------------------------------|
Db| |---------------------------------|---------------------------------|
Ab| |---------------------------------|---------------------------------|
Eb| |---------------------------------|---------------------------------|
                                                                        |
Guitar 2 (Low treble)                                                   |
eb| |---------------------------------|---------------------------------|
Bb| |10\7)----------(11\7)------------|10\7)----------(11\7)------------|
Gb| |---------------------------------|---------------------------------|
Db| |---------------------------------|---------------------------------|
Ab| |---------------------------------|---------------------------------|
Eb| |---------------------------------|---------------------------------|

Guitar 1
eb| |---------------------------------|---------------------------------|
Bb| |o7---7---7h8p7h8-7---7---7p5h7p5-|-7---7---7h8p7h8-7---7---7p5h7p5o|
Gb| |---------------------------------|---------------------------------|
Db| |---------------------------------|---------------------------------|
Ab| |o--------------------------------|--------------------------------o|
Eb| |---------------------------------|---------------------------------|
   1.                                                                   |
   2.                                                                   |
                                                                        |
Guitar 2 (Low treble)                                                   |
eb| |---------------------------------|---------------------------------|
Bb| |10\7)----------(11\7)------------|10\7)----------(11\7)-----------o|
Gb| |---------------------------------|---------------------------------|
Db| |---------------------------------|---------------------------------|
Ab| |o--------------------------------|--------------------------------o|
Eb| |---------------------------------|---------------------------------|

 ________________________
| Pre-Chorus (0:42-1:05) |
|________________________|

Guitar 1
eb| |---------------------------------|---------------------------------|
Bb| |15151515151515141414171717171717-|15151515151515141414171717171717-|
Gb| |---------------------------------|---------------------------------|
Db| |---------------------------------|---------------------------------|
Ab| |---------------------------------|---------------------------------|
Eb| |---------------------------------|---------------------------------|
                                                                        |
Guitar 2                                                                |
eb| |---------------------------------|---------------------------------|
Bb| |10101010101010-------7-7-7-7-7-7-|10101010101010-------7-7-7-7-7-7-|
Gb| |---------------7-7-7-------------|---------------7-7-7-------------|
Db| |---------------------------------|---------------------------------|
Ab| |---------------------------------|---------------------------------|
Eb| |---------------------------------|---------------------------------|

Guitar 1
eb| |---------------------------------|---------------------------------|
Bb| |15--15--15--15--15--15--15--15---|15--15--15--15--15--15--15--15---|
Gb| |---------------------------------|---------------------------------|
Db| |---------------------------------|---------------------------------|
Ab| |---------------------------------|---------------------------------|
Eb| |---------------------------------|---------------------------------|
                                                                        |
Guitar 2                                                                |
eb| |---------------------------------|---------------------------------|
Bb| |10101010101010101010101010101010-|10101010101010-------7-7-7-7-7-7-|
Gb| |---------------------------------|---------------7-7-7-------------|
Db| |---------------------------------|---------------------------------|
Ab| |---------------------------------|---------------------------------|
Eb| |---------------------------------|---------------------------------|

Guitar 1
eb| |---------------------------------|--------------14b~---------------|
Bb| |15151515151515141414171717171717-|15151515151515-------------------|
Gb| |---------------------------------|---------------------------------|
Db| |---------------------------------|---------------------------------|
Ab| |---------------------------------|---------------------------------|
Eb| |---------------------------------|---------------------------------|
                                                                        |
Guitar 2                                                                |
eb| |---------------------------------|---------------------------------|
Bb| |10101010101010-------7-7-7-7-7-7-|10101010101010-------------------|
Gb| |---------------7-7-7-------------|---------------7~~---------------|
Db| |---------------------------------|---------------------------------|
Ab| |---------------------------------|---------------------------------|
Eb| |---------------------------------|---------------------------------|

 ____________________
| Chorus (1:05-1:35) |
|____________________|

Guitar 1
eb| |---------------------------------|---------------------------------|
Bb| |o7-------7------10----10--10-8-7-|-7-------7------10----10--10-8-7-|
Gb| |-----7-----7---7-----7-----------|-----7-----7---7-----7-----------|
Db| |---------------------------------|---------------------------------|
Ab| |o--------------------------------|---------------------------------|
Eb| |---------------------------------|---------------------------------|
   1.                                                                   |
   2.                                                                   |
                                                                        |
Guitar 2                                                                |
eb| |---------------------------------|---------------------------------|
Bb| |o--------------------------------|---------------------------------|
Gb| |-----------------4---4-4---4-4-4-|-----------------4---4-4---4-4-4-|
Db| |-5---5---5-5---5-4---4-4---4-4-4-|-5---5---5-5---5-4---4-4---4-4-4-|
Ab| |o5---5---5-5---5-2---2-2---2-2-2-|-5---5---5-5---5-2---2-2---2-2-2-|
Eb| |-3---3---3-3---3-----------------|-3---3---3-3---3-----------------|

Guitar 1
eb| |---------------------------------|---------------------------------|
Bb| |-7-------7------10----10--10-8-7-|--------------------------------o|
Gb| |-----7-----7---7-----7-----------|-9---9---9-9-----9---9-9---9-9-9-|
Db| |---------------------------------|---------------------------------|
Ab| |---------------------------------|--------------------------------o|
Eb| |---------------------------------|---------------------------------|
   1.                                                                   |
   2.                                                                   |
                                                                        |
Guitar 2                                                                |
eb| |---------------------------------|---------------------------------|
Bb| |---------------------------------|--------------------------------o|
Gb| |-----------------4---4-4---4-4-4-|-2---2---2-2-----2---2-2---2-2-2-|
Db| |-5---5---5-5---5-4---4-4---4-4-4-|-2---2---2-2-----2---2-2---2-2-2-|
Ab| |-5---5---5-5---5-2---2-2---2-2-2-|-0---0---0-0-----0---0-0---0-0-0o|
Eb| |-3---3---3-3---3-----------------|---------------------------------|

 ___________________
| Verse (1:35-1:58) |
|___________________|

Guitar 1
eb| |---------------------------------|---------------------------------|
Bb| |-7---7---7h8p7h8-7---7---7p5h7p5-|-7---7---7h8p7h8-7---7---7p5h7p5-|
Gb| |---------------------------------|---------------------------------|
Db| |---------------------------------|---------------------------------|
Ab| |---------------------------------|---------------------------------|
Eb| |---------------------------------|---------------------------------|
                                                                        |
Guitar 2 (Low treble)                                                   |
eb| |---------------------------------|---------------------------------|
Bb| |10\7)----------(11\7)------------|10\7)----------(11\7)------------|
Gb| |---------------------------------|---------------------------------|
Db| |---------------------------------|---------------------------------|
Ab| |---------------------------------|---------------------------------|
Eb| |---------------------------------|---------------------------------|

Guitar 1
eb| |---------------------------------|---------------------------------|
Bb| |o7---7---7h8p7h8-7---7---7p5h7p5-|-7---7---7h8p7h8-7---7---7p5h7p5o|
Gb| |---------------------------------|---------------------------------|
Db| |---------------------------------|---------------------------------|
Ab| |o--------------------------------|--------------------------------o|
Eb| |---------------------------------|---------------------------------|
   1.                                                                   |
   2.                                                                   |
                                                                        |
Guitar 2 (Low treble)                                                   |
eb| |---------------------------------|---------------------------------|
Bb| |10\7)----------(11\7)------------|10\7)----------(11\7)-----------o|
Gb| |---------------------------------|---------------------------------|
Db| |---------------------------------|---------------------------------|
Ab| |o--------------------------------|--------------------------------o|
Eb| |---------------------------------|---------------------------------|

 ________________________
| Pre-Chorus (1:58-2:23) |
|________________________|

Guitar 1
eb| |---------------------------------|---------------------------------|
Bb| |15151515151515141414171717171717-|15151515151515141414171717171717-|
Gb| |---------------------------------|---------------------------------|
Db| |---------------------------------|---------------------------------|
Ab| |---------------------------------|---------------------------------|
Eb| |---------------------------------|---------------------------------|
                                                                        |
Guitar 2                                                                |
eb| |---------------------------------|---------------------------------|
Bb| |10101010101010-------7-7-7-7-7-7-|10101010101010-------7-7-7-7-7-7-|
Gb| |---------------7-7-7-------------|---------------7-7-7-------------|
Db| |---------------------------------|---------------------------------|
Ab| |---------------------------------|---------------------------------|
Eb| |---------------------------------|---------------------------------|

Guitar 1
eb| |---------------------------------|---------------------------------|
Bb| |15--15--15--15--15--15--15--15---|15--15--15--15--15--15--15--15---|
Gb| |---------------------------------|---------------------------------|
Db| |---------------------------------|---------------------------------|
Ab| |---------------------------------|---------------------------------|
Eb| |---------------------------------|---------------------------------|
                                                                        |
Guitar 2                                                                |
eb| |---------------------------------|---------------------------------|
Bb| |10101010101010101010101010101010-|10101010101010-------7-7-7-7-7-7-|
Gb| |---------------------------------|---------------7-7-7-------------|
Db| |---------------------------------|---------------------------------|
Ab| |---------------------------------|---------------------------------|
Eb| |---------------------------------|---------------------------------|

Guitar 1
eb| |---------------------------------|--------------14b~---------------|
Bb| |15151515151515141414171717171717-|15151515151515-------------------|
Gb| |---------------------------------|---------------------------------|
Db| |---------------------------------|---------------------------------|
Ab| |---------------------------------|---------------------------------|
Eb| |---------------------------------|---------------------------------|
                                                                        |
Guitar 2                                                                |
eb| |---------------------------------|---------------------------------|
Bb| |10101010101010-------7-7-7-7-7-7-|10101010101010-------------------|
Gb| |---------------7-7-7-------------|---------------7~~---------------|
Db| |---------------------------------|---------------------------------|
Ab| |---------------------------------|---------------------------------|
Eb| |---------------------------------|---------------------------------|

Guitar 1
eb| |---------------------------------|
Bb| |---------------------------------|
Gb| |---------------------------------|
Db| |-------------------------7-7-7-7-|
Ab| |-------------------------7-7-7-7-|
Eb| |-------------------------5-5-5-5-|
                              * * * *

 ____________________
| Chorus (2:23-2:53) |
|____________________|

Guitar 1
eb| |---------------------------------|---------------------------------|
Bb| |o7-------7------10----10--10-8-7-|-7-------7------10----10--10-8-7-|
Gb| |-----7-----7---7-----7-----------|-----7-----7---7-----7-----------|
Db| |---------------------------------|---------------------------------|
Ab| |o--------------------------------|---------------------------------|
Eb| |---------------------------------|---------------------------------|
   1.                                                                   |
   2.                                                                   |
                                                                        |
Guitar 2                                                                |
eb| |---------------------------------|---------------------------------|
Bb| |o--------------------------------|---------------------------------|
Gb| |-----------------4---4-4---4-4-4-|-----------------4---4-4---4-4-4-|
Db| |-5---5---5-5---5-4---4-4---4-4-4-|-5---5---5-5---5-4---4-4---4-4-4-|
Ab| |o5---5---5-5---5-2---2-2---2-2-2-|-5---5---5-5---5-2---2-2---2-2-2-|
Eb| |-3---3---3-3---3-----------------|-3---3---3-3---3-----------------|

Guitar 1
eb| |---------------------------------|---------------------------------|
Bb| |-7-------7------10----10--10-8-7-|--------------------------------o|
Gb| |-----7-----7---7-----7-----------|-9---9---9-9-----9---9-9---9-9-9-|
Db| |---------------------------------|---------------------------------|
Ab| |---------------------------------|--------------------------------o|
Eb| |---------------------------------|---------------------------------|
   1.                                                                   |
   2.                                                                   |
                                                                        |
Guitar 2                                                                |
eb| |---------------------------------|---------------------------------|
Bb| |---------------------------------|--------------------------------o|
Gb| |-----------------4---4-4---4-4-4-|-2---2---2-2-----2---2-2---2-2-2-|
Db| |-5---5---5-5---5-4---4-4---4-4-4-|-2---2---2-2-----2---2-2---2-2-2-|
Ab| |-5---5---5-5---5-2---2-2---2-2-2-|-0---0---0-0-----0---0-0---0-0-0o|
Eb| |-3---3---3-3---3-----------------|---------------------------------|

 ____________________
| Bridge (2:53-3:30) |
|____________________|

Guitar 1
eb| |---------------------------------|---------------------------------|
Bb| |---------------------------------|---------------------------------|
Gb| |11111111111111111111111111111111-|14141414141414141414141414141414-|
Db| |-x-x-x-x-x-x-x-x-x-x-x-x-x-x-x-x-|-x-x-x-x-x-x-x-x-x-x-x-x-x-x-x-x-|
Ab| |-9-9-9-9-9-9-9-9-9-9-9-9-9-9-9-9-|12121212121212121212121212121212-|
Eb| |---------------------------------|---------------------------------|
                                                                        |
Guitar 2                                                                |
eb| |---------------------------------|---------------------------------|
Bb| |---------------------------------|---------------------------------|
Gb| |-5-5-5-5-5-5-5-5-5-5-5-5-5-5-5-5-|-2-2-2-2-2-2-2-2-2-2-2-2-2-2-2-2-|
Db| |-5-5-5-5-5-5-5-5-5-5-5-5-5-5-5-5-|-2-2-2-2-2-2-2-2-2-2-2-2-2-2-2-2-|
Ab| |-3-3-3-3-3-3-3-3-3-3-3-3-3-3-3-3-|-0-0-0-0-0-0-0-0-0-0-0-0-0-0-0-0-|
Eb| |---------------------------------|---------------------------------|

Guitar 1
eb| |---------------------------------|---------------------------------|
Bb| |---------------------------------|---------------------------------|
Gb| |15151515151515151515151515151515-|15151515151515151517171717171717-|
Db| |-x-x-x-x-x-x-x-x-x-x-x-x-x-x-x-x-|-x-x-x-x-x-x-x-x-x-x-x-x-x-x-x-x-|
Ab| |13131313131313131313131313131313-|13131313131313131315151515151515-|
Eb| |---------------------------------|---------------------------------|
                                                                        |
Guitar 2                                                                |
eb| |---------------------------------|---------------------------------|
Bb| |---------------------------------|---------------------------------|
Gb| |-3-3-3-3-3-3-3-3-3-3-3-3-3-3-3-3-|-3-3-3-3-3-3-3-3-3-3-3-3-3-3-3-3-|
Db| |-3-3-3-3-3-3-3-3-3-3-3-3-3-3-3-3-|-3-3-3-3-3-3-3-3-3-3-3-3-3-3-3-3-|
Ab| |-1-1-1-1-1-1-1-1-1-1-1-1-1-1-1-1-|-1-1-1-1-1-1-1-1-1-1-1-1-1-1-1-1-|
Eb| |---------------------------------|---------------------------------|

Guitar 1
eb| |---------------------------------|---------------------------------|
Bb| |--------------------------1514---|--------------------------1514---|
Gb| |19\---------------------------14-|------------------------------14-|
Db| |-x-------------------------------|141211--12-----------------------|
Ab| |17\------------------------------|---------------------------------|
Eb| |---------------------------------|---------------------------------|
                                                                        |
Guitar 2                                                                |
eb| |---------------------------------|---------------------------------|
Bb| |---------------------------------|---------------------------------|
Gb| |-----------------4---4-4---4-4-4-|-----------------4---4-4---4-4-4-|
Db| |-5---5---5-5---5-4---4-4---4-4-4-|-5---5---5-5---5-4---4-4---4-4-4-|
Ab| |-5---5---5-5---5-2---2-2---2-2-2-|-5---5---5-5---5-2---2-2---2-2-2-|
Eb| |-3---3---3-3---3-----------------|-3---3---3-3---3-----------------|

Guitar 1
eb| |---------------------------------|---------------------------------|
Bb| |---------------------------------|---------------------------------|
Gb| |---------------------------------|----------------19~-----18~------|
Db| |1412-----------------------------|---------------------------------|
Ab| |---------------------------------|---------------------------------|
Eb| |---------------------------------|---------------------------------|
                                                                        |
Guitar 2                                                                |
eb| |---------------------------------|---------------------------------|
Bb| |---------------------------------|---------------------------------|
Gb| |-----------------4---4-4---4-4-4-|-----------------4---4-4---4-4-4-|
Db| |-5---5---5-5---5-4---4-4---4-4-4-|-5---5---5-5---5-4---4-4---4-4-4-|
Ab| |-5---5---5-5---5-2---2-2---2-2-2-|-5---5---5-5---5-2---2-2---2-2-2-|
Eb| |-3---3---3-3---3-----------------|-3---3---3-3---3-----------------|

Guitar 1
eb| |------22~-------21~-----22\------|---------------------------------|
Bb| |---------------------------------|---------------------------------|
Gb| |19~------------------------------|---------------------------------|
Db| |---------------------------------|---------------------------------|
Ab| |---------------------------------|---------------------------------|
Eb| |---------------------------------|---------------------------------|
                                                                        |
Guitar 2                                                                |
eb| |---------------------------------|---------------------------------|
Bb| |---------------------------------|---------------------------------|
Gb| |-----------------4---4-4---4-4-4-|---------------------------------|
Db| |-5---5---5-5---5-4---4-4---4-4-4-|-5-5-5-5-5-----------------------|
Ab| |-5---5---5-5---5-2---2-2---2-2-2-|-5-5-5-5-5-----------------------|
Eb| |-3---3---3-3---3-----------------|-3-3-3-3-3-----------------------|

 ___________________
| Outro (3:30-4:32) |
|___________________|

Guitar 1
eb| |---------------------------------|---------------------------------|
Bb| |-7-------7------10----10--10-8-7-|-7-------7------10----10--10-8-7-|
Gb| |-----7-----7---7-----7-----------|-----7-----7---7-----7-----------|
Db| |---------------------------------|---------------------------------|
Ab| |---------------------------------|---------------------------------|
Eb| |---------------------------------|---------------------------------|
                                                                        |
Guitar 2                                                                |
eb| |---------------------------------|---------------------------------|
Bb| |---------------------------------|---------------------------------|
Gb| |-----------------4---4-4---4-4-4-|-----------------4---4-4---4-4-4-|
Db| |-5---5---5-5---5-4---4-4---4-4-4-|-5---5---5-5---5-4---4-4---4-4-4-|
Ab| |-5---5---5-5---5-2---2-2---2-2-2-|-5---5---5-5---5-2---2-2---2-2-2-|
Eb| |-3---3---3-3---3-----------------|-3---3---3-3---3-----------------|

Guitar 1
eb| |---------------------------------|---------------------------------|
Bb| |-7-------7------10----10--10-8-7-|---------------------------------|
Gb| |-----7-----7---7-----7-----------|-9---9---9-9-----9---9-9---9-9-9-|
Db| |---------------------------------|---------------------------------|
Ab| |---------------------------------|---------------------------------|
Eb| |---------------------------------|---------------------------------|
                                                                        |
Guitar 2                                                                |
eb| |---------------------------------|---------------------------------|
Bb| |---------------------------------|---------------------------------|
Gb| |-----------------4---4-4---4-4-4-|-2---2---2-2-----2---2-2---2-2-2-|
Db| |-5---5---5-5---5-4---4-4---4-4-4-|-2---2---2-2-----2---2-2---2-2-2-|
Ab| |-5---5---5-5---5-2---2-2---2-2-2-|-0---0---0-0-----0---0-0---0-0-0-|
Eb| |-3---3---3-3---3-----------------|---------------------------------|

Guitar 1
eb| |---------------------------------|---------------------------------|
Bb| |10---------------7---------------|10---------------7---------------|
Gb| |---------------7-------------9\7-|---------------7-------------9\7-|
Db| |---------------------------------|---------------------------------|
Ab| |---------------------------------|---------------------------------|
Eb| |---------------------------------|---------------------------------|
                                                                        |
Guitar 2                                                                |
eb| |---------------------------------|---------------------------------|
Bb| |---------------------------------|---------------------------------|
Gb| |-----------------4---4-4---4-4-4-|-----------------4---4-4---4-4-4-|
Db| |-5---5---5-5---5-4---4-4---4-4-4-|-5---5---5-5---5-4---4-4---4-4-4-|
Ab| |-5---5---5-5---5-2---2-2---2-2-2-|-5---5---5-5---5-2---2-2---2-2-2-|
Eb| |-3---3---3-3---3-----------------|-3---3---3-3---3-----------------|

Guitar 1
eb| |---------------------------------|---------------------------------|
Bb| |10---------------7---------------|---------------------7---9-------|
Gb| |---------------7-------------9\7-|-6-----7-----9-------------------|
Db| |---------------------------------|---------------------------------|
Ab| |---------------------------------|---------------------------------|
Eb| |---------------------------------|---------------------------------|
                                                                        |
Guitar 2                                                                |
eb| |---------------------------------|---------------------------------|
Bb| |---------------------------------|---------------------------------|
Gb| |-----------------4---4-4---4-4-4-|-2---2---2-2-----2---2-2---2-2-2-|
Db| |-5---5---5-5---5-4---4-4---4-4-4-|-2---2---2-2-----2---2-2---2-2-2-|
Ab| |-5---5---5-5---5-2---2-2---2-2-2-|-0---0---0-0-----0---0-0---0-0-0-|
Eb| |-3---3---3-3---3-----------------|---------------------------------|

Guitar 1
eb| |---------------------------------|---------------------------------|
Bb| |-7-7-7-8-8-8101010-7-7-7-71514---|-------8-8-8101010-7-7-7-71514---|
Gb| |-7-7-7-7-7-7-7-7-7(7-7-7-7)---14-|-------7-7-7-7-7-7(7-7-7-7)---14-|
Db| |---------------------------------|141211---------------------------|
Ab| |---------------------------------|---------------------------------|
Eb| |---------------------------------|---------------------------------|
                                                                        |
Guitar 2                                                                |
eb| |---------------------------------|---------------------------------|
Bb| |---------------------------------|---------------------------------|
Gb| |-----------------7-7-7-7-7-7-7-7-|-----------------7-7-7-7-7-7-7-7-|
Db| |-5-5-5-5-5-5-5-5-7-7-7-7-7-7-7-7-|-5-5-5-5-5-5-5-5-7-7-7-7-7-7-7-7-|
Ab| |-5-5-5-5-5-5-5-5-5-5-5-5-5-5-5-5-|-5-5-5-5-5-5-5-5-5-5-5-5-5-5-5-5-|
Eb| |-3-3-3-3-3-3-3-3-----------------|-3-3-3-3-3-3-3-3-----------------|

Guitar 1
eb| |---------------------------------|---------------------------------|
Bb| |-------8-8-8101010-7-7-7-71514---|-------8-8-8101010-7-7-7-71514---|
Gb| |-------7-7-7-7-7-7(7-7-7-7)---14-|-------7-7-7-7-7-7(7-7-7-7)---14-|
Db| |141211---------------------------|141211---------------------------|
Ab| |---------------------------------|---------------------------------|
Eb| |---------------------------------|---------------------------------|
                                                                        |
Guitar 2                                                                |
eb| |---------------------------------|---------------------------------|
Bb| |---------------------------------|---------------------------------|
Gb| |-----------------7-7-7-7-7-7-7-7-|-----------------7-7-7-7-7-7-7-7-|
Db| |-5-5-5-5-5-5-5-5-7-7-7-7-7-7-7-7-|-5-5-5-5-5-5-5-5-7-7-7-7-7-7-7-7-|
Ab| |-5-5-5-5-5-5-5-5-5-5-5-5-5-5-5-5-|-5-5-5-5-5-5-5-5-5-5-5-5-5-5-5-5-|
Eb| |-3-3-3-3-3-3-3-3-----------------|-3-3-3-3-3-3-3-3-----------------|

Guitar 1
eb| |---------------------------------|-x-------------------------------|
Bb| |-7-7-7-7-7-7-7-7-5-5-5-5-5-5-5-5-|-7~------------------------------|
Gb| |-7-7-7-7-7-7-7-7-7-7-7-7-7-7-7-7-|-7~------------------------------|
Db| |---------------------------------|-0~------------------------------|
Ab| |---------------------------------|-0~------------------------------|
Eb| |---------------------------------|-x-------------------------------|
                                                                        |
Guitar 2                                                                |
eb| |---------------------------------|---------------------------------|
Bb| |---------------------------------|---------------------------------|
Gb| |---------------------------------|---------------------------------|
Db| |-2-2-2-2-2-2-2-2-2-2-2-2-2-2-2-2-|-5~------------------------------|
Ab| |-2-2-2-2-2-2-2-2-2-2-2-2-2-2-2-2-|-5~------------------------------|
Eb| |-0-0-0-0-0-0-0-0-0-0-0-0-0-0-0-0-|-3~------------------------------|

Guitar 1 & 2
eb| |---------------------------------|---------------------------------|
Bb| |---------------------------------|---------------------------------|
Gb| |---------------------------------|---------------------------------|
Db| |---------------------------------|---------------------------------|
Ab| |---------------------------------|---------------------------------|
Eb| |---------------------------------|---------------------------------|


 ________
| Legend |
|________|

h   - Hammer-on
p   - Pull-off
b   - Bend
r   - Release bend
~   - Sustain
/   - Slide up
\   - Slide down
x   - Mute
*   - Palm mute
7*  - Natural harmonics
11^ - Artificial (pinch) harmonics
(7) - Ghost note(s)
(*) - Gradually release mute
TP  - Tremolo pick
/// - Pick scrape down
\\\
\\\ - Pick scrape up
///

!!! - Play as you would usually play a harmonic and slide down then up

 _______
| Notes |
|_______|

UPDATE- I finally finished the lyrics and added Brooklyn, the bonus track from iTunes 
I don't have the lyrics for it.

I still have trouble with the Outros to Miami and I'll Let You Live so any help would be 
In Brooklyn, they might use another guitar in there in places like the Bridge and Outro 
when I know more, I will update.

Once again, please no copying without my permission and especially don't make a new tab 
one of mine.
Добавлено: 27.10.2013
Другие материалы по этой песне:
  • Аккорды и текст

Страница создана 27.10.2013
http://primanota.ru/taking-back-sunday/louder-now-chords.htm
Привет, Гость.
Предлагаем пройти революционный курс по гитаре.
Подарок от PrimaNota.Ru, забирай!