PrimaNota.ru - самый крупный в мире бесплатный архив песенных текстов, аккордов, табулатур и нот


Taking Back Sunday - Lonely Lonely - текст песни, таба, бас-таба, видео

Регистрация Запомнить меня
Войти через:  Facebook Google Twitter Vk Yandex Mail.ru

Taking Back Sunday - Lonely Lonely - текст песни, таба, бас-таба, видео

Печатать
Просмотров: 117
Artist: Taking Back Sunday
Song: Lonely, Lonely
Album: New Again
Tabbed By: Matt Florio; myspace.com/mattflorio2
Email: Shempashland@yahoo.com

This is the song "Lonely, Lonely" by Taking Back Sunday.
This is one of the better songs on the album.
I figured it out by ear and was suprised that it hadn't been tabbed correctly; so 
I figured I'd add mine!
Contact me if you have questions or comments!
Enjoy!

Tuning: Half Step Down Drop C#

Intro
e|---------------------------------------|
B|---------------------------------------|
G|---------------------------------------|
D|--7h999p7h9999999-7h9999999-7h9999999--|
A|--7h999p7h9999999-7h9999999-7h9999999--|
D|--7h999p7h9999999-7h9999999-7h9999999--|

e|---------------------------------------------------------|
B|---------------------------------------------------------|
G|---------------------------------------------------------|
D|--7h9999997p0~-7h9999997p0~-7h9999997p0~-2222222222222---|
A|--7h9999997p0~-7h9999997p0~-7h9999997p0~-2222222222222---|
D|--7h9999997p0~-7h9999997p0~-7h9999997p0~-2222222222222---|

Verse
*Mainly quiet w/ stratching (mimic intro chords) and feedback until:
e|-----------------------------------------------------------|
B|-----------------------------------------------------------|
G|------------------777-444-9-9-9--444-444-------------------|
D|--99-99-99-999-99-999-666-121212-666-666-7h99999-7h99999p7-|
A|-----------------------------------------7h99999-7h99999p7-|
D|-----------------------------------------7h99999-7h99999p7-|
"...sending down the western coast..."

Chorus
e|------------------------------------------------------|
B|------------------------------------------------------|
G|-------------------7777777777777777-------------------|
D|--9999999999999999-7777777777777777-22222222-44444444-|
A|--9999999999999999-0000000000000000-22222222-44444444-|
D|--9999999999999999-0000000000000000-22222222-44444444-|

e|-----------------------------|
B|-----------------------------|
G|-----------------------------|
D|--7h9999997p0~-7h9999997p0~--|
A|--7h9999997p0~-7h9999997p0~--|
D|--7h9999997p0~-7h9999997p0~--|

Verse 2
*the bend on the last note make fuller
e|-----------------------------------|
B|--0-0--0---0-0-0-0-0-0--0--0-------|
G|--7-11-4-x-7-9-6-7-4-11-14-16-9b---|
D|---------7--------------------12b--|
A|-----------------------------------|
D|-----------------------------------|
"what would it take..."

e|----------------------|
B|----------------------|
G|----------------------|
D|-7h99999-7h99999p7----|
A|-7h99999-7h99999p7----|
D|-7h99999-7h99999p7----|

Chorus
e|---------------------------------------------------------------|
B|---------------------------------------------------------------|
G|-------------------7777777777777777----------------------------|
D|--9999999999999999-7777777777777777-22222222-44444444-22222222-|
A|--9999999999999999-0000000000000000-22222222-44444444-22222222-|
D|--9999999999999999-0000000000000000-22222222-44444444-22222222-|

Bridge
e|---------------------------------------|
B|---------------------------------------|
G|---------------------------------------|
D|--7h999p7h9999999-7h9999999-7h9999999--|
A|--7h999p7h9999999-7h9999999-7h9999999--|
D|--7h999p7h9999999-7h9999999-7h9999999--|

this part is played twice
e|-----0---0--0---0--0-0--0--0--0-----------|
B|-----8---8--8---7--7-7--6--6--6--0--0--0--|
G|-----9---9--9---8--8-8--7--7--7--5--5--5--|
D|--10--10--10--9--9--9--8--8--8--7--7--7---|
A|--10--10--10--9--9--9--8--8--8--7--7--7---|
D|--10--10--10--9--9--9--8--8--8--7--7--7---|

after the second time play this
-its sounds like alot of noise so it was hard to make out
*harmonic
e|----------xxxxxxxx----|
B|----------xxxxxxxx-5*-|
G|----------xxxxxxxx----|
D|--77777777xxxxxxxx----|
A|--66666666xxxxxxxx----|
D|--66666666xxxxxxxx----|

Chorus


Outro
e|---------------------------------------|
B|---------------------------------------|
G|---------------------------------------|
D|--7h999p7h9999999-7h9999999-7h9999999--|
A|--7h999p7h9999999-7h9999999-7h9999999--|
D|--7h999p7h9999999-7h9999999-7h9999999--|

then ends on:
e|---------------------|
B|---------------------|
G|-9/10-1010-9/10-1010-|
D|-x/x--x-x--x/x--x-x--|
A|-7/9--9-9--7/9--9-9--|
D|---------------------|
Добавлено: 09.05.2012
Другие материалы по этой песне:
  • Аккорды и текст

Страница создана 09.05.2012
http://primanota.ru/taking-back-sunday/lonely-lonely-chords.htm
Привет, Гость.
Предлагаем пройти революционный курс по гитаре.
Подарок от PrimaNota.Ru, забирай!